Dim Halo - Green Wheel Chords & Tabs

 

Green Wheel Chords & Tabs

Dim Halo Chords & Tabs

Version: 1 Type: Tab 0 ratings
1 star 2 stars 3 stars 4 stars 5 stars
comments

Green Wheel Tab

   
#----------------------------------PLEASE NOTE---------------------------------#
#This file is the author's own work and represents their interpretation of the #
#song. You may only use this file for private study, scholarship, or research. #
#------------------------------------------------------------------------------#

GreenWheel - Dim Halo


Please Note:  I tabbed absolutely all of this song. Just play 
              all the way down to the bottom, if you need help
      listen to the song.
               
Guitar is tuned in drop D :  D A D G B E

H = hammer on Fret  
P = Pull off Fret (but still touching strings)  
S = Slide to

INTRO(Distorted):
______________________________________________________________________________________________
   
 e|-----------------------------------0---------------|
 b|---------3-------------3--------------3------------|
 g|------------0-------------0-----0--------0---------|    ( part A )
 D|---------------4-------------4--------------4------| 
 A|---------------------------------------------------|
 D|--0-h-2-------------0------------------------------|

 e|------------------------------------------------0--|
 b|------------------------------------------------3--|
 g|------------------------------------------------2--|    ( part B )
 D|--0-h-2--2--2--0--2--5-----2--2--2--0--2--0--2--0--|
 A|--0-h-2--2--2--0--2--5-----2--2--2--0--2--0--2--0--|
 D|--0-h-2--2--2--0--2--5-----2--2--2--0--2--0--2--0--|


VERSE(Distorted) same as intro "A":
______________________________________________________________________________________________

   Imagine no daylight______.  
 e|------------------------------------------------------------------------0-----------|
 b|---------3--------------------------------------------------3--------------3--------|
 g|------------0--------------------------------------------------0-----0--------0-----|
 D|---------------4--------------------------------------------------4--------------4--|
 A|------------------------------------------------------------------------------------|
 D|--0-h-2--------------------------------------------------0--------------------------|

BRIDGE(Distorted):
______________________________________________________________________________________________

   

 e|------------------0------------------------0---------------------0----------------0----|
 b|------------------0------------------------3---------------------0----------------3----|
 g|------------------2------------------------0---------------------2----------------2----|
 D|------------------2------------------------0---------------------2----------------0----|
 A|------------------0------------------------2---------------------0----------------0----|
 D|---------------------------------------------------------------------------------------|

CHORUS(Distorted):
______________________________________________________________________________________________

 And to all my regret___.
   

 e|--------------------------------------------------------0-0-0-0-0-0-0----
 g|--------------------------------------------------------0-0-0-0-0-0-0----
 b|--7-7-7-7-7-7-7--7--7--7--7--7--7--7--7--7-7-7-7-7-7-7--2-2-2-2-2-2-2----
 D|--5-5-5-5-5-5-5--7--7--7--7--7--7--7--7--5-5-5-5-5-5-5--2-2-2-2-2-2-2----
 A|-----------------5--5--5--5--5--5--5--5--3-3-3-3-3-3-3--0-0-0-0-0-0-0----
 D|-------------------------------------------------------------------------



 e|------------------------------------------------------0-0-0-0-0-0-0------|
 g|------------------------------------------------------0-0-0-0-0-0-0------|
 b|--7-7-7-7-7-7-7--7--7--7--7--7--7-7-7--7-7-7-7-7-7-7--2-2-2-2-2-2-2------|
 D|--5-5-5-5-5-5-5--7--7--7--7--7--7-7-7--5-5-5-5-5-5-5--2-2-2-2-2-2-2------|
 A|-----------------5--5--5--5--5--5-5-5--3-3-3-3-3-3-3--0-0-0-0-0-0-0------|
 D|-------------------------------------------------------------------------|

VERSE"2"(Distorted):
______________________________________________________________________________________________

                       Break my fall______.

 e|--------------------------------------------------0-----------|
 b|---------3--------------------------3----------------3--------|
 g|------------0----------------------------0-----0--------0-----|
 D|---------------4----------------------------4--------------4--|
 A|--------------------------------------------------------------|
 D|--0-h-2--------------------------0----------------------------|


                                                             
 e|----------------------------------------------------|
 b|-------------------------------------------------3--|
 g|-------------------------------------------------2--|    
 D|--0-h-2--2--2--0--2--5-----2--2--2--0--2--0--2---0--|
 A|--0-h-2--2--2--0--2--5-----2--2--2--0--2--0--2---0--|
 D|--0-h-2--2--2--0--2--5-----2--2--2--0--2--0--2---0--|

  

 e|-------------------------------------------------------------------------------------|
 b|-------------------------------------------------------------------------------------|
 g|-------------------------------------------------------------------------------------|
 D|---2--2--2--2--2--p-------------2--2--2--2--2--p-------2-s-5--5--5--5--5--5--5--5--5-|
 A|---2--2--2--2--2--p-------------2--2--2--2--2--p-------2-s-5--5--5--5--5--5--5--5--5-|
 D|---2--2--2--2--2--p-------------2--2--2--2--2--p-------2-s-5--5--5--5--5--5--5--5--5-|

BRIDGE"2"(Distorted):
______________________________________________________________________________________________

   
[ Tab from: http://www.guitartabs.cc/tabs/d/dim_halo/green_wheel_tab.html ]
 e|------------------0------------------------0---------------------0----------------0----|
 b|------------------0------------------------3---------------------0----------------3----|
 g|------------------2------------------------0---------------------2----------------2----|
 D|------------------2------------------------0---------------------2----------------0----|
 A|------------------0------------------------2---------------------0----------------0----|
 D|---------------------------------------------------------------------------------------|


CHORUS"2"(Distorted):
______________________________________________________________________________________________

 And to all my regret___.
   

 e|--------------------------------------------------------0-0-0-0-0-0-0----
 g|--------------------------------------------------------0-0-0-0-0-0-0----
 b|--7-7-7-7-7-7-7--7--7--7--7--7--7--7--7--7-7-7-7-7-7-7--2-2-2-2-2-2-2----
 D|--5-5-5-5-5-5-5--7--7--7--7--7--7--7--7--5-5-5-5-5-5-5--2-2-2-2-2-2-2----
 A|-----------------5--5--5--5--5--5--5--5--3-3-3-3-3-3-3--0-0-0-0-0-0-0----
 D|-------------------------------------------------------------------------

 
 e|---------------------------------------------------------------------------------------
 g|---------------------------------------------------------------------------------------
 b|--7-7-7-7-7-7-7--7--7--7--7--7--7-7-7---7-7-7-7--7-7-7---5-5-5-5-5-5-5--4-4-4-4-4-4-4--
 D|--5-5-5-5-5-5-5--7--7--7--7--7--7-7-7---5-5-5-5--5-5-5---5-5-5-5-5-5-5--4-4-4-4-4-4-4--
 A|-----------------5--5--5--5--5--5-5-5---3-3-3-3--3-3-3---3-3-3-3-3-3-3--2-2-2-2-2-2-2--
 D|---------------------------------------------------------------------------------------
                            Break__my__fall_____________________.
 e|-------------------------------------------------------------------------------0------|
 b|-------------------------------------------------------------------------------3------|
 g|--4-4-4-4-4-4-4--7-7-7-7-7-7--7---7---5-5-5-5-5-5-5--4-4-4-4-4-4--9-9-9-9-9-9--2------|
 D|--2-2-2-2-2-2-2--5-5-5-5-5-5--5---7---5-5-5-5-5-5-5--4-4-4-4-4-4--9-9-9-9-9-9--0------|
 A|--2-2-2-2-2-2-2--5-5-5-5-5-5--5---5---3-3-3-3-3-3-3--2-2-2-2-2-2--7-7-7-7-7-7--0------|
 D|--2-2-2-2-2-2-2--5-5-5-5-5-5--5------------------------------------------------0------|


BRIDGE"3"(Distorted):
______________________________________________________________________________________________

  

 e|------------------0------------------------0---------------------0----------------0----|
 b|------------------0------------------------3---------------------0----------------3----|
 g|------------------2------------------------0---------------------2----------------2----|
 D|------------------2------------------------0---------------------2----------------0----|
 A|------------------0------------------------2---------------------0----------------0----|
 D|---------------------------------------------------------------------------------------|


CHORUS"3"(Distorted):
______________________________________________________________________________________________

 And to all my regret___.
  

 e|---------------------------------------------------0----------------|
 b|---------3--------------3-----------------------1--0--0-------------|
 g|------0-----0--------0------0---------------0---------2-------------|
 D|---5--------------4-------------4-------2-------------2-------------|
 A|---5--------------5-----------------3-----------------0-------------|
 D|--------------------------------------------------------------------|

 

 e|------------------------------------------------------0-0-0-0-0-0-0------|
 g|------------------------------------------------------0-0-0-0-0-0-0------|
 b|--7-7-7-7-7-7-7--7--7--7--7--7--7-7-7--7-7-7-7-7-7-7--2-2-2-2-2-2-2------|
 D|--5-5-5-5-5-5-5--7--7--7--7--7--7-7-7--5-5-5-5-5-5-5--2-2-2-2-2-2-2------|
 A|-----------------5--5--5--5--5--5-5-5--3-3-3-3-3-3-3--0-0-0-0-0-0-0------|
 D|-------------------------------------------------------------------------|


 And to all my regret___.
  

 e|------------------------------------------------------0-0-0-0-0-0-0------|
 g|------------------------------------------------------0-0-0-0-0-0-0------|
 b|--7-7-7-7-7-7-7--7--7--7--7--7--7-7-7--7-7-7-7-7-7-7--2-2-2-2-2-2-2------|
 D|--5-5-5-5-5-5-5--7--7--7--7--7--7-7-7--5-5-5-5-5-5-5--2-2-2-2-2-2-2------|
 A|-----------------5--5--5--5--5--5-5-5--3-3-3-3-3-3-3--0-0-0-0-0-0-0------|
 D|-------------------------------------------------------------------------|

 

 e|------------------------------------------------|
 g|------------------------------------------------|
 b|--5-5-5-5-5-5-5-5-5-5-5-5--4-4-4-4-4-4-4-4-4-4--|
 D|--5-5-5-5-5-5-5-5-5-5-5-5--4-4-4-4-4-4-4-4-4-4--|
 A|--3-3-3-3-3-3-3-3-3-3-3-3--2-2-2-2-2-2-2-2-2-2--|
 D|------------------------------------------------|

 My screams can only___
   

 e|------------------------------------------------------------------------------|
 b|------------------------------------------------------------------------------|
 g|------------------------------------------------------------------------------|
 D|---2--2--2--2--2--p------2--2--2--2--2--p-------2---5--5--5--5--5--5--5--5--5-|
 A|---2--2--2--2--2--p------2--2--2--2--2--p-------2---5--5--5--5--5--5--5--5--5-|
 D|---2--2--2--2--2--p------2--2--2--2--2--p-------2---5--5--5--5--5--5--5--5--5-|


OUTRO(Distorted): same as intro "b"
______________________________________________________________________________________________

 e|-------------------------------------------------0--|
 b|-------------------------------------------------3--|
 g|-------------------------------------------------2--|    
 D|--0-h-2--2--2--0--2--5-----2--2--2--0--2--0--2---0--|
 A|--0-h-2--2--2--0--2--5-----2--2--2--0--2--0--2---0--|
 D|--0-h-2--2--2--0--2--5-----2--2--2--0--2--0--2---0--|

______________________________________________________________________________________________

    Order of song:

Intro
Verse
Bridge
Chorus
Verse"2"
Bridge"2"
Chorus"2"
Bridge"3"
Chorus"3"
Outro


There you go that is all of it, this is a great 
song and its a lot of fun to play if you have 
any questions or comments please email me at
            me_37_@hotmail.com

-Jaron
Comments