Dillinger Escape Plan - Unretrofied Chords & Tabs

 

Unretrofied Chords & Tabs

Dillinger Escape Plan Chords & Tabs

Version: 1 Type: Tab 0 ratings
1 star 2 stars 3 stars 4 stars 5 stars
comments

Unretrofied Tab

   
Tabbed by Siracid

Band: Dillinger Escape Plan
Album: Miss Machine
Song: Unretrofied
Comments: A great song...not so hard to play but still.

Intro/Chorus
(After the Opera part)

Guitar 1


E|----------------------------------------|
B|----------------------------------------|
G|-5--------------------------------------|
D|-5-----6-----6-----6-----5--------------|
A|-3-----6-----5-----6-----5--------------|
E|-------4-----4-----4-----3--------------|

Guitar 2

E|---------------------------------------------------|
B|---------------------------------------------------|
G|--0---0---0---0--3--0--7--0---0---0--3--0--7--0----|
D|---------------------------------------------------|
A|----3---3---3---------------3---3------------------|
E|---------------------------------------------------|


E|---------------------------------------------------|
B|---------------------------------------------------|
G|---0---0--7--7/8--8--7--7--5--5--0-----------------|
D|---------------------------------------------------|
A|-3---3---------------------------------------------|
E|---------------------------------------------------|


E|---------------------------------------------------|
B|---------------------------------------------------|
G|-------------------0---0--3--0---0-----------------|
D|--3---3------3---3---3---------3-------------------|
A|----3------3---3-----------------------------------|
E|--------4------------------------------------------|

[ Tab from: http://www.guitartabs.cc/tabs/d/dillinger_escape_plan/unretrofied_tab.html ]
E|---------------------------------------------------|
B|---------------------------------------------------|
G|--0---0---0---0--3--0--7--7~-----------------------|
D|---------------------------------------------------|
A|----3---3---3--------------------------------------|
E|---------------------------------------------------|


Bridge

Guitar 1

E|---------------------------------------------------|
B|---------------------------------------------------|
G|---------------------------------------------------|
D|-7--8--7----7-7----7--8---12-12-12-----------------|
A|-7--8--7----7-7----7--8---12-12-12-----------------|
E|-7--8--7----7-7----7--8---12-12-12-----------------|


Outro

Guitar 1


E|-------|
B|-------|
G|-5-----|
D|-5-----|
A|-3-----|
E|-------|

Guitar 2

E|--------------------|
B|--------------------|
G|-5-5-5-7-7-8-8-8----|
D|--------------------|
A|-3-3-3-5-5-6-6-6----|
E|--------------------|

Guitar 1

E|-------|
B|-------|
G|-------|
D|-6-----|
A|-6-----|
E|-4-----|

Guitar 2

E|----------------------|
B|----------------------|
G|-7-7-7-8-8-8-10-10-10-|
D|----------------------|
A|-5-5-5-6-6-6--8--8--8-|
E|----------------------|

Guitar 1

E|-------|
B|-------|
G|-------|
D|-6-----|
A|-5-----|
E|-4-----|

Guitar 2

E|----------------------|
B|----------------------|
G|-4-4-4/13-13-12-12-12-|
D|----------------------|
A|-2-2-2/11-11-10-10-10-|
E|----------------------|

Guitar 1

E|-------|
B|-------|
G|-------|
D|-5-----|
A|-5-----|
E|-3-----|

Guitar 2

E|----------------------|
B|----------------------|
G|-5-|----4-|-----------|
D|---|x8----|x8---------|
A|-3-|----2-|-----------|
E|----------------------|

Enjoy...Use this tab however u want...and for any questions...siracid@touchmyinfection.com
Comments