Dillinger Escape Plan - Phone Home Chords & Tabs

 

Phone Home Chords & Tabs

Dillinger Escape Plan Chords & Tabs

Version: 1 Type: Tab 0 ratings
1 star 2 stars 3 stars 4 stars 5 stars
comments

Phone Home Tab

   
-----------------------------------------------------------------
Phone Home - The Dillinger Escape Plan
-----------------------------------------------------------------
Tabbed by: Nate Messina
Email: nate.messina@gmail.com

Guitar 1: EADGBE
Gutiar 2: DADGBE

Drum intro until 0:54, some ambience in the background.

Guitar 1 0:54 "Take fire..."
e|-----------------------------------|
B|-----------------------------------|
G|---------2-2---------2-2-----2-2---|
D|-0-0-3-3-----0-0-3-3-----0-0-------|
A|-----------------------------------|
E|-----------------------------------|
P.M----------------------------------

Guitar 2
*I play this with a synth wah that slowly opens, then closes quickly, it works pretty well
0:54
e|----------------------------------|
B|----------------------------------|
G|----------------------------------|
D|-0--------------------------------|
A|-0--------------------------------|
D|-0--------------------------------|

0:56
e|----------------------------------|
B|----------------------------------|
G|---------2-2---------2-2-----1-1--|
D|-0-0-3-3-----0-0-3-3-----0-0------|  
A|----------------------------------|  
E|----------------------------------|  
P.M----------------------------        
Guitar 2's D5 chord is still ringing  
*Repeat this section 11 times*
                                    
1:38
e|-----------------------------------|
B|-----------------------------------|
G|---------2-2-----3-3-2-2-----2-2---|
D|-0-0-3-3-----0-0---------3-3-------|
A|-----------------------------------|
E|-----------------------------------|
P.M----------------------------------

1:40
e|-----------------------------------|
B|-----------------------------------|
G|---------2-2---------2-2-----2-2---|
D|-0-0-3-3-----0-0-3-3-----0-0-------|
A|-----------------------------------|
E|-----------------------------------|
P.M----------------------------------

1:42
e|----------------------------------------------------------------|
B|----------------------------------------------------------------|
G|-7-7-7-7--7-7-7-7-7-7---7-7-7-7---------------------------------|
D|-6-6-6-6--6-6-6-6-6-6---6-6-6-6------------------5-5-5-5-8-8-8-8|X4
A|-5-5-5-5--5-5-5-5-5-5---5-5-5-5--5-5-5-5-6-6-6-6-3-3-3-3-6-6-6-6|
E|---------------------------------3-3-3-3-4-4-4-4----------------|
[ Tab from: http://www.guitartabs.cc/tabs/d/dillinger_escape_plan/phone_home_tab.html ]
2:14 "Suck it in, spit it out..."
e|-----------------------------------|
B|-----------------------------------|
G|---------2-2---------2-2-----2-2---|--|
D|-0-0-3-3-----0-0-3-3-----0-0-------|  |
A|-----------------------------------|  |
E|-----------------------------------|  |
P.M----------------------------------   |
                                        |
e|----------------------------------|   |
B|----------------------------------|   |
G|----------------------------------|---| X11
D|-0--------------------------------|   |
A|-0--------------------------------|   |
D|-0--------------------------------|   |
                                        |
e|----------------------------------|   |
B|----------------------------------|   |
G|---------2-2---------2-2-----1-1--|---|
D|-0-0-3-3-----0-0-3-3-----0-0------|  
A|----------------------------------|  
E|----------------------------------|  
P.M----------------------------   
Chord still ringing

2:58
e|----------------------------------------------------------------|
B|----------------------------------------------------------------|
G|-7-7-7-7--7-7-7-7-7-7---7-7-7-7---------------------------------|
D|-6-6-6-6--6-6-6-6-6-6---6-6-6-6------------------5-5-5-5-8-8-8-8|X4
A|-5-5-5-5--5-5-5-5-5-5---5-5-5-5--5-5-5-5-6-6-6-6-3-3-3-3-6-6-6-6|
E|---------------------------------3-3-3-3-4-4-4-4----------------|

3:32 "I can tell you're a good fuck..."
e|---------------------------------------------------------------|
B|---------------------------------------------------------------|
G|---------------------------------------------------------------|
D|-3-4-2---3--2---4--6--5--3--4--2---3---2-----------------------|X2
A|-3-4-2---3--2---4--6--5--3--4--2---3---2-----------------------|
D|-3-4-2---3--2---4--6--5--3--4--2---3---2-----------------------|

e|----------|
B|----------|
G|----------|
D|-3--4--2--|
A|-3--4--2--|
E|-3--4--2--|

4:03
e|----------------------------------------------------------------|
B|----------------------------------------------------------------|
G|-7-7-7-7--7-7-7-7-7-7---7-7-7-7---------------------------------|
D|-6-6-6-6--6-6-6-6-6-6---6-6-6-6------------------5-5-5-5-8-8-8-8|
A|-5-5-5-5--5-5-5-5-5-5---5-5-5-5--5-5-5-5-6-6-6-6-3-3-3-3-6-6-6-6|
E|---------------------------------3-3-3-3-4-4-4-4----------------|

| / slide up
| \ slide down
| h hammer-on
| p pull-off
| ~ vibrato
| + harmonic
| x Mute note
Comments