Dillinger Escape Plan - 43 Percent Burnt Jazz Break Chords & Tabs

 

43 Percent Burnt Jazz Break Chords & Tabs

Dillinger Escape Plan Chords & Tabs

Version: 1 Type: Tab 0 ratings
1 star 2 stars 3 stars 4 stars 5 stars
comments

43 Percent Burnt Jazz Break Tab

"43% Burnt" - the Dillinger Escape Plan
-J.R. Garcia-

If you need any Dillinger Escape Plan tabs write me
at meshuggah45@hotmail.com...

Both guitars...

e|-------------------------------------------------|
B|-------------------------------------------------|
G|10---------7-----9----10---------7---9----10-----|
D|---9-----8---8-----8-----9-----8---8---8-----9---|
A|-----7-9-------9-----7-----7-9-----------7-----7-|
E|-------------------------------------------------|

e|--------------------------------|
B|--------------------------------|
G|----7-----9----10--------10-----|
D|--8---8-----8-----9-----8---9---|
A|9-------9-----7-----7-9-------8-|
E|--------------------------------|

The guitars then split...

Left guitar then goes...

e|----------------------------------------|
B|--------------------8--10---------------|
G|9--10-----9--10---------------9--10-----|
D|--8---9-----8---9-----9---9-----8---9---|
A|--------8---------8---------8---------8-|
E|----------------------------------------|
[ Tab from: http://www.guitartabs.cc/tabs/d/dillinger_escape_plan/43_percent_burnt_jazz_break_tab.html ]
e|----------------------------------------------------------------|
B|----------------------------------------------------------------|
G|----7-----9----10---------7---9----10---------7-----9----10-----|
D|--8---8-----8-----9-----8---8---8-----9-----8---8-----8-----9---|
A|9-------9-----7-----7-9-----------7-----7-9-------9-----7-----7-|
E|----------------------------------------------------------------|

and repeats it once again...

Right guitar plays...

e|----------------------------------------|
B|--------------------8--10---------------|
G|9--10-----9--10---------------9--10-----|
D|--8---9-----8---9-----9---9-----8---9---|
A|--------8---------8---------8---------8-|
E|----------------------------------------|

and repeats several times to fit the left guitar...

then they both play...

e|--------------------|
B|--------------------|
G|7-----7----11----10-|
D|6-----6----10-----9-|
A|5-----5-----9-----8-|
E|--------------------|

and go back into the song...

-J.R. Garcia

If you need any Dillinger tabs, feel free to e-mail me at 
meshuggah45@hotmail.com

Comments