Diguel - Surviving Chords & Tabs

 

Surviving Chords & Tabs

Diguel Chords & Tabs

Version: 1 Type: Tab 0 ratings
1 star 2 stars 3 stars 4 stars 5 stars
comments

Surviving Tab

Author/Artist: DiGuel/DiGuel
Title: Surviving
Album: DG
Transcribed by: Dieskate
Email: d-sk8@al-dieblo.zzn.com

Note: This is the ORIGINAL TAB of our first song SURVIVING

Thanks to: El Jota, for being my teacher and my Compa. All my Family, U are all for me. GOD,
U know why. P.O.D., for all the inspiration you gave to me, thanks Sonny, Marcos, Wuv & Traa.
All my sk8er frinds, Esteban, Alfredo, Juan, & all you guys I forgot. 
The Offspring,Beastie Boys, Blink 182, Pillar, Pax 217, Supertones, MxPx,Thousand Foot Krutch,
Relient K, Our Lady Peace, Limp Bizkit, Bon Jovi, U2, Rocola Bacalao, Chuck Berry,  
System of a Down, Sum 41, T-Bone, Sugar Ray. Fernando Campaņa, Anthony Mesa, Mauricio Mora,
and all you guys at school. Sebastian Brito. Anyone who I didn't mention,(sorry) but thanks
4 all your support.     

Tuning: Dropped D                                                             

Intro
------------------------------------------------------------------------------
------------------------------------------------------------------------------
------------------------------------------------------------------------------
------------------------------------------------------------------------------
------------------------------------------------------------------------------
-0-0-0--2-2-2--5-5-5-4-5-4----------------------------------------------------
                                                                              

Riff1
------------------------------------------------------------------------------
------------------------------------------------------------------------------
------------------------------------------------------------------------------
-0--0--0--0--0--0--0--2--2--2--2--2--2--2--2--5--5--5--5--5--5----------------
-0--0--0--0--0--0--0--2--2--2--2--2--2--2--2--5--5--5--5--5--5----------------
-0--0--0--0--0--0--0--2--2--2--2--2--2--2--2--5--5--5--5--5--5----------------
                                                                              
------------------------------------------------------------------------------
------------------------------------------------------------------------------
------------------------------------------------------------------------------
--5--5--4--4--5--5--4--4--5--5------------------------------------------------
--5--5--4--4--5--5--4--4--5--5------------------------------------------------
--5--5--4--4--5--5--4--4--5--5------------------------------------------------
                                                                              
[ Tab from: http://www.guitartabs.cc/tabs/d/diguel/surviving_tab.html ]
Verse 1
------------------------------------------------------------------------------
------------------------------------------------------------------------------
------------------------------------------------------------------------------
--2-2--2-2--2-2--5-5---2-2--2-2--2-2--4-4-------------------------------------
--2-2--2-2--2-2--5-5---2-2--2-2--2-2--4-4-------------------------------------
--2-2--2-2--2-2--5-5---2-2--2-2--2-2--4-4-------------------------------------
                                                                              
(at the last part)
------------------------------------------------------------------------------
------------------------------------------------------------------------------
------------------------------------------------------------------------------
-2-2--2-2--2-2-2-2-2----------------------------------------------------------
-2-2--2-2--2-2-2-2-2----------------------------------------------------------
-2-2--2-2--2-2-2-2-2----------------------------------------------------------
                                                                              
Verse2
------------------------------------------------------------------------------
------------------------------------------------------------------------------
---9-9-9-9-7-7-7-7-6-6-6-6-7-7-7-7--------------------------------------------
---7-7-7-7-5-5-5-5-4-4-4-4-5-5-5-5--------------------------------------------
------------------------------------------------------------------------------
------------------------------------------------------------------------------
                                                                              

------------------------------------------------------------------------------
------------------------------------------------------------------------------
--9-9-9-9-7-7-7-7-6-6-6-6-6-6-6-----------------------------------------------
--7-7-7-7-5-5-5-5-4-4-4-4-4-4-4-----------------------------------------------
------------------0-0-0-0-0-0-0-----------------------------------------------
------------------0-0-0-0-0-0-0-----------------------------------------------
                                                                              
Verse3
------------------------------------------------------------------------------
------------------------------------------------------------------------------
------------------------------------------------------------------------------
-9-9-9-9-9-9-9-9-7-7-7-7-7-7-7-7----------------------------------------------
-9-9-9-9-9-9-9-9-7-7-7-7-7-7-7-7----------------------------------------------
-9-9-9-9-9-9-9-9-7-7-7-7-7-7-7-7----------------------------------------------
                                                                              
Outro
------------------------------------------------------------------------------
------------------------------------------------------------------------------
------------------------------------------------------------------------------
-8-8-8-8-8-8-8-8-------10-10-10-10-10-----------------------------------------
-8-8-8-8-8-8-8-8-------10-10-10-10-10-----------------------------------------
-8-8-8-8-8-8-8-8--8/10-10-10-10-10-10-----------------------------------------
                                                                              

------------------------------------------------------------------------------
------------------------------------------------------------------------------
------------------------------------------------------------------------------
-8-8-8-8-8-8-8-8--8/10-10-10-10-10-10-10-10-----------9-9-------9-------------
-6-6-6-6-6-6-6-6--6/8--8--8--8--8--8--8--8------------9-9-------9-------------
------------------------------------------------------9-9-------9-------------


Order:
Intro
Riff 1     2x
Verse 1    4x
Riff 1     2x
Verse 2    4x
Riff 1     2x
Verse 3    3x
Outro      1x
Comments