Diguel - Bad Day Chords & Tabs

 

Bad Day Chords & Tabs

Diguel Chords & Tabs

Version: 1 Type: Tab 0 ratings
1 star 2 stars 3 stars 4 stars 5 stars
comments

Bad Day Tab

Author/Artist: DiGuel
Title: Bad Day?
Album: DG
Transcribed by: Dieskate
Email: d-sk8@al-dieblo.zzn.com
Note: This is the ORIGINAL TAB of our first song Bad Day?

Thanks to: El Jota, for being my teacher and my Compa. All my Family, U are all for me. GOD,
U know why. P.O.D., for all the inspiration you gave to me, thanks Sonny, Marcos, Wuv & Traa.
All my sk8er frinds, Esteban, Alfredo, Juan, & all you guys I forgot. 
The Offspring,Beastie Boys, Blink 182, Pillar, Pax 217, Supertones, MxPx,Thousand Foot Krutch,
Relient K, Our Lady Peace, Limp Bizkit, Bon Jovi, U2, Rocola Bacalao, Chuck Berry,  
System of a Down, Sum 41, T-Bone, Sugar Ray. Fernando Campaņa, Anthony Mesa, Mauricio Mora,
and all you guys at school. Sebastian Brito. Anyone who I didn't mention,(sorry) but thanks
4 all your support. 

Tuning: Dropped D

-----------|--------------|-----------|---------------------------------------
-----------|--------------|-----------|---------------------------------------
-----------|--------------|-----------|---------------------------------------
-----------|--------------|-----------|-------77777777------------------------
-----------|--------------|-----------|-------77777777------------------------
-555-0-5-3-|-777-0-7/8\7--|-555-0-5-3-|-777-0-77777777------------------------
                                                                              

------------------------------------------------------------------------------
------------------------------------------------------------------------------
------------------------------------------------------------------------------
------------------------------------------------------------------------------
-55555555--33333333--------77777777-88888888----------------------------------
-55555555--33333333--------77777777-88888888----------------------------------
                                                                              

------------------------------------------------------------------------------
------------------------------------------------------------------------------
------------------------------------------------------------------------------
-22222222-44444444-77777777-66-55-44-33---------------------------------------
-22222222-44444444-77777777-66-55-44-33---------------------------------------
-22222222-44444444-77777777-66-55-44-33---------------------------------------
                                                                              
[ Tab from: http://www.guitartabs.cc/tabs/d/diguel/bad_day_tab.html ]
------------------------------------------------------------------------------
------------------------------------------------------------------------------
------------------------------------------------------------------------------
-22222222-44444444-66666666-55-44-33-22---------------------------------------
-22222222-44444444-66666666-55-44-33-22---------------------------------------
-22222222-44444444-66666666-55-44-33-22---------------------------------------
                                                                              

------------------------------------------------------------------------------
------------------------------------------------------------------------------
------------------------------------------------------------------------------
-33333333-55555555-77777777-99999999------------------------------------------
-33333333-55555555-77777777-99999999------------------------------------------
-33333333-55555555-77777777-99999999------------------------------------------
                                                                              

------------------------------------------------------------------------------
------------------------------------------------------------------------------
------------------------------------------------------------------------------
-88-88-88-88-88-88-88-8/9-99-99-99-99-99-99-99-9/10---------------------------
-88-88-88-88-88-88-88-8/9-99-99-99-99-99-99-99-9/10---------------------------
-88-88-88-88-88-88-88-8/9-99-99-99-99-99-99-99-9/10---------------------------
                                                                              

----------|-------------------------------------------------------------------
----------|-------------------------------------------------------------------
----------|-------------------------------------------------------------------
-555-0-3--|-777-0-8-----------------------------------------------------------
-555-0-3--|-777-0-8-----------------------------------------------------------
-555-0-3--|-777-0-8-----------------------------------------------------------
                                                                              

------------------------------------------------------------------------------
------------------------------------------------------------------------------
------------------------------------------------------------------------------
-8-7-5-7-9-----------3--------------------------------------------------------
-8-7-5-7-9-----------3--------------------------------------------------------
-8-7-5-7-9-----------3--------------------------------------------------------
Comments