Diffuser - I Wonder Chords & Tabs

 

I Wonder Chords & Tabs

Diffuser Chords & Tabs

Version: 1 Type: Tab 0 ratings
1 star 2 stars 3 stars 4 stars 5 stars
comments

I Wonder Tab

tabed by dorteater

Intro X4

E|------------------------|---Last time play this-------------------------------|
B|------------------------|-----------------------------------------------------|
G|------------------------|-----------------------------------------------------|
D|---22222222--66666666---|---22222222--66666666--4~~~~~~-let ring--------------|
A|---22222222--66666666---|---22222222--66666666--4~~~~~~-----------------------|
E|---00000000--44444444---|---00000000--44444444--2~~~~~~-----------------------|

Second Guitar
E|------------------------------------------------------------------------------|
B|---4--5--7~~~~--4--5--7~~~~---------------------------------------------------|
G|------------------------------------------------------------------------------|
D|------------------------------------------------------------------------------|
A|------------------------------------------------------------------------------|
E|------------------------------------------------------------------------------|


Verse

E|--------------------------THIS PART X2------------|---------------------------|
B|--------------------------------------------------|---------------------------|
G|---------------44-4--44-4-------------------------|---------------------------|
D|---22-2--22-2--44-4--44-4--66-6--66-6--77-7--77-7-|2~~~--6~~~--44-4--44-4-----|
A|---22-2--22-2--22-2--22-2--66-6--66-6--77-7--77-7-|2~~~--6~~~--44-4--44-4-----|
E|---00-0--00-0--------------44-4--44-4--55-5--55-5-|0~~~--4~~~--22-2--22-2-----|
PM   ^^    ^^    ^^    ^^    ^^    ^^    ^^    ^^                ^^    ^^

Verse continued

E|------------------------------------------------------------------------------|
B|------------------------------------------------------------------------------|
G|------------------------------------------------------------------------------|
D|---44-4--44-4--22-2--22-2--22-2--22-2-----------------------------------------|
A|---44-4--44-4--22-2--22-2--22-2--22-2-----------------------------------------|
E|---22-2--22-2--00-0--00-0--00-0--00-0-----------------------------------------|
PM   ^^    ^^    ^^    ^^    ^^    ^^

Second Guitar
E|------------------------------------------------------------------------------|
B|------------------------------------------------------------------------------|
G|------------------------------------------------------------------------------|
D|---2-2-2-2-2-2----------------2-2-2-2-2-2-------------------------------------|
A|---------------2-2------------------------2-2---------------------------------|
E|-------------------4--------------------------4-------------------------------|

Chorus X2

E|------------------------------------------------------------------------------|
B|---------------------------------------------Last time play this part--8X-----|
G|---44444444---------------------------------------^---------------------------|
D|---44444444--66666666--44444444--22-22-22-22------^--4~~~~~-------------------|
A|---22222222--66666666--44444444--22-22-22-22>>>>>>^--4~~~~~-------------------|
E|-------------44444444--22222222--00-00-00-00---------2~~~~~-------------------|
PM                                 ^^ ^^ ^^ ^^

Second guitar
E|------------------------------------------------------------------------------|
B|---4-5-7---4-5-7---4-5-7-00-7-00-4-00-7--4-5-7---4-5-7---4-5-7-00-7-00-4-00-7-|
G|---------4-------4-----------------------------4-------4----------------------|
D|PM-----------------------^^---^^---^^--------------------------^^---^^---^^---|
A|------------------------------------------------------------------------------|
E|------------------------------------------------------------------------------|

Second Guitar continued
E|------------------------------------------------------------------------------|
B|---00-4-00-7-00-4-00-7-00-4~~~~~~---------------------------------------------|
G|------------------------------------------------------------------------------|
D|PM-^^---^^---^^---^^---^^-----------------------------------------------------|
A|------------------------------------------------------------------------------|
E|------------------------------------------------------------------------------|

Verse

E|--------------------------THIS PART X2------------|---------------------------|
B|--------------------------------------------------|---------------------------|
G|---------------44-4--44-4-------------------------|---------------------------|
D|---22-2--22-2--44-4--44-4--66-6--66-6--77-7--77-7-|2~~~--6~~~--44-4--44-4-----|
A|---22-2--22-2--22-2--22-2--66-6--66-6--77-7--77-7-|2~~~--6~~~--44-4--44-4-----|
E|---00-0--00-0--------------44-4--44-4--55-5--55-5-|0~~~--4~~~--22-2--22-2-----|
PM   ^^    ^^    ^^    ^^    ^^    ^^    ^^    ^^                ^^    ^^

Verse continued

E|------------------------------------------------------------------------------|
B|------------------------------------------------------------------------------|
G|------------------------------------------------------------------------------|
D|---44-4--44-4--22-2--22-2--22-2--22-2-----------------------------------------|
A|---44-4--44-4--22-2--22-2--22-2--22-2-----------------------------------------|
E|---22-2--22-2--00-0--00-0--00-0--00-0-----------------------------------------|
PM   ^^    ^^    ^^    ^^    ^^    ^^

Second Guitar
E|------------------------------------------------------------------------------|
B|------------------------------------------------------------------------------|
G|------------------------------------------------------------------------------|
D|---2-2-2-2-2-2----------------2-2-2-2-2-2-------------------------------------|
A|---------------2-2------------------------2-2---------------------------------|
E|-------------------4--------------------------4-------------------------------|

Chorus X2
[ Tab from: http://www.guitartabs.cc/tabs/d/diffuser/i_wonder_tab.html ]
E|------------------------------------------------------------------------------|
B|---------------------------------------------Last time play this part--8X-----|
G|---44444444---------------------------------------^---------------------------|
D|---44444444--66666666--44444444--22-22-22-22------^--4~~~~~-------------------|
A|---22222222--66666666--44444444--22-22-22-22>>>>>>^--4~~~~~-------------------|
E|-------------44444444--22222222--00-00-00-00---------2~~~~~-------------------|
PM                                 ^^ ^^ ^^ ^^

Second guitar
E|------------------------------------------------------------------------------|
B|---4-5-7---4-5-7---4-5-7-00-7-00-4-00-7--4-5-7---4-5-7---4-5-7-00-7-00-4-00-7-|
G|---------4-------4-----------------------------4-------4----------------------|
D|PM-----------------------^^---^^---^^--------------------------^^---^^---^^---|
A|------------------------------------------------------------------------------|
E|------------------------------------------------------------------------------|

Second Guitar continued
E|------------------------------------------------------------------------------|
B|---00-4-00-7-00-4-00-7-00-4~~~~~~---------------------------------------------|
G|------------------------------------------------------------------------------|
D|PM-^^---^^---^^---^^---^^-----------------------------------------------------|
A|------------------------------------------------------------------------------|
E|------------------------------------------------------------------------------|

Bridge
E|-----------------------------PLay that once more and then---------------------|
B|------------------------------------------------------------------------------|
G|------------------------------------------------------------------------------|
D|---66-6--44-4--44-4--44-4--------22222222--66666666---------------------------|
A|---66-6--44-4--22-2--44-4--X4----22222222--66666666---------------------------|
E|---44-4--22-2--00-0--22-2--------00000000--44444444---------------------------|
PM   ^^    ^^    ^^    ^^

Bridge continued X2

E|------------------------------------------------------------------------------|
B|------------------------------------------------------------------------------|
G|--44444444--------------------------------------------------------------------|
D|--44444444--66666666--44444444--22222222--------------------------------------|
A|--22222222--66666666--44444444--22222222--------------------------------------|
E|------------44444444--22222222--00000000--------------------------------------|

Second Guitar
E|-------------------------------------------------------------------------------|
B|---4-5-7-4-5-4-4-5-7-4~~~~~~---------------------------------------------------|
G|-------------------------------------------------------------------------------|
D|-----------Second part---------------------------------------------------------|
A|-------------------------------------------------------------------------------|
E|-------------------------------------------------------------------------------|

Chorus X2

E|------------------------------------------------------------------------------|
B|---------------------------------------------Last time play this part--8X-----|
G|---44444444---------------------------------------^---------------------------|
D|---44444444--66666666--44444444--22-22-22-22------^--4~~~~~-------------------|
A|---22222222--66666666--44444444--22-22-22-22>>>>>>^--4~~~~~-------------------|
E|-------------44444444--22222222--00-00-00-00---------2~~~~~-------------------|
PM                                 ^^ ^^ ^^ ^^

Second guitar
E|------------------------------------------------------------------------------|
B|---4-5-7---4-5-7---4-5-7-00-7-00-4-00-7--4-5-7---4-5-7---4-5-7-00-7-00-4-00-7-|
G|---------4-------4-----------------------------4-------4----------------------|
D|PM-----------------------^^---^^---^^--------------------------^^---^^---^^---|
A|------------------------------------------------------------------------------|
E|------------------------------------------------------------------------------|

Second Guitar continued
E|------------------------------------------------------------------------------|
B|---00-4-00-7-00-4-00-7-00-4~~~~~~---------------------------------------------|
G|------------------------------------------------------------------------------|
D|PM-^^---^^---^^---^^---^^-----------------------------------------------------|
A|------------------------------------------------------------------------------|
E|------------------------------------------------------------------------------|

Outro

E|------------------------------------------------------------------------------|
B|------------------------------------------------------------------------------|
G|---44444444--44444444----------------------44444444--44444444-----------------|
D|---44444444--44444444--66666666--44444444--44444444--44444444-----------------|
A|---22222222--22222222--66666666--44444444--22222222--22222222-----------------|
E|-----------------------44444444--22222222-------------------------------------|

Outro Continued

E|------------------------------------------------------------------------------|
B|------------------------------------------------------------------------------|
G|---------------------------44444444--44444444---------------------------------|
D|---22-2--22-2--22-2--22-2--44444444--44444444--66666666--44444444-------------|
A|---22-2--22-2--22-2--22-2--22222222--22222222--66666666--44444444-------------|
E|---00-0--00-0--00-0--00-0----------------------44444444--22222222-------------|
PM   ^^    ^^    ^^    ^^

Outro continued

E|------------------------------------------------------------------------------|
B|------------------------------------------------------------------------------|
G|-----------------------------------4~~~~--------------------------------------|
D|---22--22--22--22--22--22--22--22--4~~~~--------------------------------------|
A|---22--22--22--22--22--22--22--22--2~~~~--------------------------------------|
E|---00--00--00--00--00--00--00--00-<<<<<<<<<<<<<<<<<<<<<<<<<<------------------|
PM   ^^  ^^  ^^  ^^  ^^  ^^  ^^  ^^                          ^
                                                             ^
Second guitar                                                ^
E|-----------------------------------------------------------^--|
B|---00-7-00-4-00-7-00-4-00-7-00-4---4~~~~~ let ring---------^--|
G|-----------------------------------------------------------^--|
D|PM-^^---^^---^^---^^---^^---^^-----------------------------^--|
A|--------------------------------------------------------------|
E|--------------------------------------------------------------|

END OF SONG WHEN FIRST GUITAR IS PALM MUTING THE STUFF ABOVE
Comments