Diesel Boy - Titty Twister Chords & Tabs

 

Titty Twister Chords & Tabs

Diesel Boy Chords & Tabs

Version: 1 Type: Tab 0 ratings
1 star 2 stars 3 stars 4 stars 5 stars
comments

Titty Twister Tab

Band: Diesel Boy
Song: Titty Twister
Tabbed By: Andrew Cannell
E-Mail: deathless_one@hotmail.com
Tuning: Standard

Intro
Guitar One
|----------------------12h13-12h13--------------------------------12-12-12-------|
|-12----------14/151515-----------15-131313--------------15-12-------------15-13-|
|----14-121212------------------------------14--12-14-12-----14-12---------------|
|--------------------------------------------------------------------------------|
|--------------------------------------------------------------------------------|
|--------------------------------------------------------------------------------|

|------------------------------------------------------------------------------|
|-12-------------------------------------------------------------13------------|
|----14-121212----------------12-12h14p12-------------14-12-14-12--14-12(13b)--|
|-------------12b12b12131414-------------14-12-/10-10--------------------14b/10|
|------------------------------------------------------------------------------|
|------------------------------------------------------------------------------|

Guitar Two
[ Tab from: http://www.guitartabs.cc/tabs/d/diesel_boy/titty_twister_tab.html ]
|--------------------------------|
|--------------------------------|
|------------8-------------------|
|9/8-5---7---8---9---5---7---5---|
|9/8-5---7---6---9---5---7---5---|
|7/6-3---5-------7---3---5---3---|

|--------------------------------|
|--------------------------------|
|------------8-----------8---5---|
|9/8-5---7---8---9---5---8---5---|
|9/8-5---7---6---9---5---6---3---|
|7/6-3---5-------7---3-----------|

Verse
Both Guitars
|----------------------------|
|----------------------------|
|--------8-------------------|
|5---7---8---9---5---7---5---|
|5---7---6---9---5---7---5---|
|3---5-------7---3---5---3---|

|--------------------------------|
|--------------------------------|
|------------8-----------8---5---|
|9/8-5---7---8---9---5---8---5---|
|9/8-5---7---6---9---5---6---3---|
|7/6-3---5-------7---3-----------|

Pre-Chorus
|----------------------------|
|----------------------------|
|8---------------8-----------|
|8---9---5---7---8---9---7---|
|6---9---5---7---6---9---7---|
|----7---3---5-------7---5---|

Chorus
|------------|
|------------|
|------------|
|5---7---5---|
|5---7---5---|
|3---5---3---|

Repeat Intro

Repeat Verse

Repeat Chorus

Repeat Chorus

Bridge
|------------|
|------------|
|----8---5---|
|5---8---5---|
|5---6---3---|
|3-----------|
On and Off PMing
Ring Each Note Once Last Time

Outro
|------------|
|------------|
|----8---5---|
|5---8---5---|
|5---6---3---|
|3-----------|
End on playing final note chord twice.
Comments