Diesel Boy - Lime Green Chords & Tabs

 

Lime Green Chords & Tabs

Diesel Boy Chords & Tabs

Version: 2 Type: Bass Tab 0 ratings
1 star 2 stars 3 stars 4 stars 5 stars
comments

Lime Green Bass Tab

------------------------------------
Lime Green  / Diesel Boy
------------------------------------


Riff 1  (6x)
[ Tab from: http://www.guitartabs.cc/tabs/d/diesel_boy/lime_green_btab_ver_2.html ]
G:----------------------------------------------------------|
D:----------------------------------------------------------|
A:------------4-6-666666666-4-2222222222-4-6-4-44444444444--|
E:-2222222222-----------------------------------------------|

Riff 2  
            (4x)                    (1x)  
G:--------------|-----------------------|
D:--------------|-----------------------|
A:--22-6-44-----|---------444444444-----|
E:-2------------|-2222222---------------|

Riff 3  (3x)

G:-----------|
D:-----------|
A:---44-2----|
E:-2---------|

Riff 1  (3x)
Riff 2  (4x)
Riff 3  (3x)






Comments