Dierks Bentley - How Am I Doin Chords & Tabs

 

Dierks Bentley Chords & Tabs

Version: 1 Type: Tab 0 ratings
1 star 2 stars 3 stars 4 stars 5 stars
comments

How Am I Doin Tab

   
Intro
-------------0--------2-2-----2-------4-4---44----0-0---------0-0--000-|
-----------0----------2-2-----2-------4-4---44----0-0---------0-0--000-|
-------0h2------------2-2-----2-------4-4---44----1-1---------1-1--111-|
-----2----------------2-2-----2-------4-4---44----2-2---------2-2--000-|
---2----------------0-x-x---0-x-0h1-2-x-x---44----2-2-2/4-3-2-2-2--222-|
-0--------------------x-x-----x-------x-x-2-xx-0--0-0---------0-0--000-|


---2-2-----2-2---2-----4-44---4-44---0-0----------------------0-------|
---2-2-----2-2---2-----4-44---4-44---0-0--------------------0---------|
---2-2-----2-2---2-----4-44---4-44---1-1----------------0h2-----------|
---2-2-----2-2---4-----4-44---4-44---2-2--------------2---------------|
-0-x-x---0-x-x---4-0-1-x-xx---x-xx---2-2-2/4-2------2-----------------|
---x-x-----x-x-2-2-----x-xx-2-x-xx-0-0-0-------3^-0-------------------|

 	  	  	  A
Its strange to hear your voice
          B
I did not expect
           E Run down
For you to call

Run Down:
----------|
----------|
--4--3--2-|
--3--2--1-|
--4--3--2-|
----------|

                   A
You wonder how I'm doin
               F#m
How I'm holdin up
      B           E
Since you did me wrong

-----------------------0-|
---------------------0---|
-----------------0h1-----|
---------------2---------|
--2/4-2------2-----------|
--------3^-0-------------|

[ Tab from: http://www.guitartabs.cc/tabs/d/dierks_bentley/how_am_i_doin_tab.html ]
Chorus:
     A
Well how am I doin' since you did what you done to me?
E
I can't lie I sometimes cry when I think of how it used to be
A
I keep my friends with me, I stay busy and I don't get much sleep
E                                       B                E
Baby, that's how I'm doin since you did what you done to me


Verse 1:
A
Well now wait one minute, I

Failed to mention
                                  E
Those tears I cried, are tears of joy
       A
Cause' it was no fun there

Under your thumb and
B
Now that we're done I'm
E
Gettin' right every night

With every single ever-lovin' girl in sight, so


Repeat chorus


Verse 2:
Well when all my friends heard what a
You know what you were they
Took me out on the town
But then I heard our song and
I dance along but
It felt all wrong cause'
She was sweet, she let me lead
She never took her ever-lovin' eyes off me so


Repeat chorus


Bridge:
B                                         A
Well I don't know what you were thinkin'
B                    A
Runnin' round on me
B
Now you say you're sorry

Well honey I agree...so


Last Chorus:
How are you doin' since you did
What you done to me
Girl don't lie you know you cry
Cause' you know how good it used to be
Yeah, tell me does the thought of
Losin' my true love make it hard to sleep, baby
How are you doin' since you did
What you done to me

E
Yeah how are you doin', now that you know

How I'm doin since you did
          B      E
What you done to me
Comments