Diecast - Singled Out Chords & Tabs

 

Singled Out Chords & Tabs

Diecast Chords & Tabs

Version: 1 Type: Tab 0 ratings
1 star 2 stars 3 stars 4 stars 5 stars
comments

Singled Out Tab

   
This band is from the Boston underground metal scene.  They release their first
album to the public in summer of 2002.  Go to www.bhcdiecast.com for mroe info on them...
-------------------------------------------------------------------------------
			     Singled Out - Diecast
-------------------------------------------------------------------------------

Tabbed by : Jonathan Billings 
Email : Intoxicatedriffx@aol.com

Tuning : Drop D 1/2

This is an awesome song and I have been glued to it trying to figure it out.  
Im sure its about 99.9% perfect minus song lone ghost notes.

Intro : ends 00:17
e|---------------------------------------------------------------------------|
B|---------------------------------------------------------------------------|
G|---------------------------------------------------------------------------|
D|---------------------------------------------------------------------------|
A|--------5~-------------5~--------------5~--------------5~------------------|
D|--7~-8~----0-----7~-8~-----0-----7~-8~----0------7~-8~---------------------|

   00:18  Play 3x (PM all opens)
e|---------------------------------------------------------------------------|
B|---------------------------------------------------------------------------|
G|---------------------------------------------------------------------------|
D|--0------------------------------------------------------------------------|
A|--0--0-0-0-1h3-0--0-0-0-1h3-0--0-0-0-1h3-0-0-3h5-0-0-5h6-------------------|
D|--0--0-0-0-1h3-0--0-0-0-1h3-0--0-0-0-1h3-0-0-3h5-0-0-5h6-------------------|

  Last Time (Starts 0:33 seconds)
e|---------------------------------------------------------------------------|
B|---------------------------------------------------------------------------|
G|---------------------------------------------------------------------------|
D|--0------------------------------------------------------------------------|
A|--0--0-0-0-1h3-0--0-0-0-1h3-0--0-0-0-1-------------------------------------|
D|--0--0-0-0-1h3-0--0-0-0-1h3-0--0-0-0-1-------------------------------------|

  Play twice (PM opens)
e|---------------------------------------------------------------------------|
B|---------------------------------------------------------------------------|
G|---------------------------------------------------------------------------|
D|---------------------------------------------------------------------------|
A|--1p0--0-0--1p0-0-0-0--1p0-0-0--1p0-0-0-0----------------------------------|
D|--1p0--0-0--1p0-0-0-0--1p0-0-0--1p0-0-0-0----------------------------------|
[ Tab from: http://www.guitartabs.cc/tabs/d/diecast/singled_out_tab.html ]
  Then this... (Repeat as needed...listen to song for exact)
e|---------------------------------------------------------------------------|
B|---------------------------------------------------------------------------|
G|---------------------------------------------------------------------------|
D|---------------------------------------------------------------------------|
A|---------------------------------------------------------------------------|
D|--1p0-x-1--1p0-0-0-3~------------------------------------------------------|

  Play once...
e|---------------------------------------------------------------------------|
B|---------------------------------------------------------------------------|
G|---------------------------------------------------------------------------|
D|---------------------------------------------------------------------------|
A|--1p0--0-0--1p0-0-0-0--1p0-0-0--1p0-0-0-0----------------------------------|
D|--1p0--0-0--1p0-0-0-0--1p0-0-0--1p0-0-0-0----------------------------------|

  **Chorus** Repeat as needed...
e|---------------------------------------------------------------------------|
B|---------------------------------------------------------------------------|
G|---------------------------------------------------------------------------|
D|--0------------xx7---------------------------------------------------------|
A|--0--xx7~-xx8~-xx5---------------------------------------------------------|
E|--0--xx7~-xx8~-------------------------------------------------------------|
                       

e|---------------------------------------------------------------------------|
B|---------------------------------------------------------------------------|
G|---------------------------------------------------------------------------|
D|---------------------------------------------------------------------------|
A|-0-0-0-0-0--------0-0-0-0-0--------0-0-0-0-0--------0-0-0-0-0--------------|
E|-0-0-0-0-0-7-8-7--0-0-0-0-0-7-8-7--0-0-0-0-0-7-8-7--0-0-0-0-0-6-5-3-5------|

e|---------------------------------------------------------------------------|
B|---------------------------------------------------------------------------|
G|---------------------------------------------------------------------------|
D|---------------------------------------------------------------------------|
A|-0-0-0--7-8-7--0-0-0-7-8-7--0-0-0-7-8-7--0-0-0-6-5-3-5---------------------|
E|-0-0-0--7-8-7--0-0-0-7-8-7--0-0-0-7-8-7--0-0-0-6-5-3-5---------------------|


Remember when you play this song to mute most of the open notes.  Just listen to
the song and you'll see.  ROCK THIS OUT!!  ANy corrections or additions send to
Intoxicatedriffx@aol.com

| h  hammer-on
| p  pull-off
| ~  vibrato
| x  Mute note
===============================================================================
Comments