Die Trying - Oxygens Gone Chords & Tabs

 

Oxygens Gone Chords & Tabs

Die Trying Chords & Tabs

Version: 2 Type: Tab 0 ratings
1 star 2 stars 3 stars 4 stars 5 stars
comments

Oxygens Gone Tab

   
Hey Guys, This is my first time posting a Tab on the site.
Hope its Right. This is all the parts, i didnt show how many times to play each
one you can figure that out by just listening.

-Big A-

Drop D


Add Distortion

E---------------|---------------|-------------------------------
B---------------|---------------|-------------------------------
G---------------|---------------|-------------------------------
D--22-55--------|--22-55--------|-------------------------------
A--00-33-33-22--|--00-33-33-55--|-------------------------------
E--------33-22--|--------33-55--|-------------------------------

Palm Mute--->

E----------------------------------|----------------------------
B----------------------------------|----------------------------
G----------------------------------|----------------------------
D-----2--------2---------0----32---|----------------------------
A--003-0030--03-0030------------3--|----------------------------
E--------------------0000-3333-----|----------------------------
[ Tab from: http://www.guitartabs.cc/tabs/d/die_trying/oxygens_gone_tab_ver_2.html ]
E----------------------------------|----------------------------
B----------------------------------|----------------------------
G----------------------------------|----------------------------
D-----2--------2-------------------|----------------------------
A--003-0030--03-0030-----0----32---|----------------------------
E--------------------0000-3333--5--|----------------------------

No Palm Mute--->

E--------------------------|------------------------------------
B--------------------------|------------------------------------
G--------------------------|------------------------------------
D--2222--2-5555------------|------------------------------------
A--0000--0-3333-00-33-32---|------------------------------------
E------3--------00-33---5--|------------------------------------

E---------------------------|-----------------------------------
B---------------------------|-----------------------------------
G---------------------------|-----------------------------------
D---------------------------|-----------------------------------
A-----20---23---35-555532---|-----------------------------------
E--000--222--333--5------3--|-----------------------------------
Comments