Die Trying - Oxygens Gone Chords & Tabs

 

Oxygens Gone Chords & Tabs

Die Trying Chords & Tabs

Version: 1 Type: Tab 0 ratings
1 star 2 stars 3 stars 4 stars 5 stars
comments

Oxygens Gone Tab

Tabbed by: Nicole aka N$MONEY
Email: Billabongnw182@aol.com

Maybe this is right...maybe not, who cares.
[ Tab from: http://www.guitartabs.cc/tabs/d/die_trying/oxygens_gone_tab.html ]
e|----------------------------|---------------------------------------------|
B|----------------------------|---------------------------------------------|
G|-3-3----5-5----2-2----4-4---|---1-1----5-5----4-4----2-2------------------|
D|-3-3----5-5----2-2----4-4---|---1-1----5-5----4-4----2-2------------------| *2
A|-1-1----3-3----0-0----2-2---|---3-3----3-3----2-2----0-0------------------|
E|----------------------------|---------------------------------------------|


e|----------------------------|
B|----------------------------|
G|-3-3----5-5----2-2----4-4---|
D|-3-3----5-5----2-2----4-4---|
A|-1-1----3-3----0-0----2-2---|
E|----------------------------|


www.dietrying.com
Comments