Die Toten Hosen - Wort Zum Sontag Chords & Tabs

 

Wort Zum Sontag Chords & Tabs

Die Toten Hosen Chords & Tabs

Version: 1 Type: Tab 0 ratings
1 star 2 stars 3 stars 4 stars 5 stars
comments

Wort Zum Sontag Tab

   
may not be 100% perfect, but to me, it sound f***ing good!


Die Toten Hosen
Das Wort Zum Sonntag


[Intro Part I & Verse Part I]

  e			       D    C              G    
e-0--------3-3-2-0-------------2----0---------0------------------------------------
B-0-------------------------3--3----1--------1-1--------3--------------------------
G-0-----------------------2----2----0--0----0---0------0---------------------------
D-2---------------------0-----------2--2---2----------0----------------------------
A-2----------------0-2--------------3--3--3----------2----0-2-2h3p2p0h2p0----------
E-0--0-0-------------------------------------------3----------------------3p2-0----

  e			       D    C		   G	      b
e-0--------3-3-2-0-------------2----0---------0---------------2--------------------
B-0-------------------------3--3----1--------1-1--------3-----3--------------------
G-0-----------------------2----2----0--0----0---0------0------4--------------------
D-2---------------------0-----------2--2---2----------0----4--4--------------------
A-2----------------0-2--------------3--3--3----------2-----2--2--------------------
E-0--0-0-------------------------------------------3-------------------------------


[Intro Part II & Chorus]
    C	    D	    h		      C       D        e 
e----------------------------------------------------------------------------0-0-0-
B-----------------------------5-4-0------------------------------------------0-0-0-
G-----0--0----0--0----2--2--------------0--0----0--0-------------------0-0-0-0-0-0-
D----2--2--2-4--4--4-0--0--0-2---------2--2--2-4--4--4-----2-2-2-2-2-2-2-2-2-------
A-0-3--3--3-5--5--5-2--2--2-3-------0-3--3--3-5--5--5--2-2-2-2-2-2-2-2-------------
E------------------------------------------------------0-0-0-0-0-0-----------------
						(von den tiefen auf die
						hohen Saiten übergehen)
[Verse I]
(Intro Part I oder Akkorde)
 e					 e
Früher war alles besser			Früher, hör auf mit früher
 D					    D
Früher war alles gut			Ich will es nicht mehr hörn
	   C					C
Da hielten alle noch zusammen		Damals war es auch nicht anders
      G			b		      G			   b
Die Bewegung hatte noch Wut		Mich kann das alles nicht störn


[Chorus]
(Intro Part II oder Akkorde)
    C		   D
Ich bin noch keine sechzig
	b		   C
Und ich bin auch nicht nah dran
	 (C)		  D
Und erst dann werde ich erzählen
    e
Was früher einmal war

[ Tab from: http://www.guitartabs.cc/tabs/d/die_toten_hosen/wort_zum_sontag_tab.html ]
[Verse II]
  e		C			  a		      F
Solange Johnny Thunders lebt		Solange ich noch zwei Freunde find
  G		      D				C		     G
Solange bleib ich ein Punk		Werden wir durch die Straßen ziehn
  e		  C			  a			F
Solange es was zu trinken gibt		Solang die Wellenreiter lästern
	G		D			  C			  G
Dauern alle unsre Feste an		Weiß ich, dass es nichts besseres gibt


[Chorus]
(Intro Part II oder Akkorde)
    C		   D				  C		    D
Ich bin noch keine sechzig		Ich werde immer laut durchs Leben ziehn
	b		   C		      b		   C
Und ich bin auch nicht nah dran		Jeden Tag in jedem Jahr
	 (C)		  D			     (C)	     D
Und erst dann werde ich erzählen	Und wenn ich wirklich einmal anders bin
    e						     e
Was früher einmal war			Ist mir das heute doch scheissegal


[Solo]
   F	    G	     e					a
e|---------------------------|-------|-----------|---------------|------|--------------------------------
B|--1--1----3--3----3--3-----|-6-5-6-|-----------|-1-1-1-1-1-1-1-|------|6-5-6---6-6-6-6-3-3-3-3-5-5-5-5-
G|-2--2--2-4--4--4-0--0--0-2-|-------|-----------|-2-2-2-2-2-2-2-|------|--------------------------------
D|3--3--3-5--5--5-2--2--2-3--|-------|-----------|-2-2-2-2-2-2-2-|------|--------------------------------
A|---------------------------|-------|---Part-I--|-0-0-0-0-0-0-0-|Part-I|--------------------------------
E|---------Part-I------------|-------|wiederholen|---------------|------|--------------------------------


[Verse III]
     e			    C				    a		F
Kein Zeitungsknabe wird uns jemals erzählen		Das Ende setzen wir uns selbst
	 G		   D					    C		   G
Was grad alt oder brandneu ist				Und niemand anders auf der Welt
      e			   C				  a		F
Damit würd er höchstens so viel erzielen		Begreift besser jetzt als nie
	G		     D					 C		    G
Wie ein Hund der gegen Bäume pisst			Es kommt erst wenn es uns gefällt


[Chorus]
(Intro Part II oder Akkorde)
    C		    D				   C		     D
Wir sind noch keine sechzig		Wir werden immer laut durchs Leben ziehn
	b		    C		      b		   C
Und wir sind auch nicht nah dran	Jeden Tag in jedem Jahr
	 (C)		   D			     (C)	     D
Und erst dann werden wir erzählen	Und wenn wir wirklich einmal anders sind
    e						e
Was früher einmal war			Ist das heute doch scheissegal


[Outro]
(Intro Part II, nur zum Schluss 8 mal vollständig e anschlagen)


tabs by distorted_order AKA couchpunk
any questions? don't speak german and don't understand it?
mail me: couchpunk@web.de
Comments