Die Toten Hosen - Pushed Again Chords & Tabs

 

Pushed Again Chords & Tabs

Die Toten Hosen Chords & Tabs

Version: 1 Type: Tab 0 ratings
1 star 2 stars 3 stars 4 stars 5 stars
comments

Pushed Again Tab

|-----------------|-----------------|-----------------|-----------------||
|-----------------|-----------------|-----------------|-----------------:|
|-----0-------2---|-----0-------2---|-----0-------2---|-----0-----------||
|---2---2---2---2-|---4---4---0---0-|---2---2---2---2-|---4---4---4---4-||
|---------0-------|---------2-------|---------0-------|-----------------:|
|-0---------------|-3---------------|-0---------------|-3-------2---3---||

|-----------------|-----------------||-----------------|-----------------|
:-----------------|-----------------::-----------------|-----------------|
|-----0-------0---|-----0-------0---||-----0-------2---|-----0-------2---|
|---4---4---4---4-|---4---4---4---4-||---2---2---2---2-|---4---4---0---0-|
:-3-------3-------|-5-------5-------::---------0-------|---------2-------|
|-----------------|-----------------||-0---------------|-3---------------|

-----------------|-----------------||-----------------||-----------------|
-----------------|-----------------:|-----------------|:-----------------|
-----0-------2---|-----0-----------||-----0-------0---||-----0-------0---|
---2---2---2---2-|---4---4---4---4-||---4---4---4---4-||---4---4---4---4-|
---------0-------|-----------------:|---------5-------|:-3-------3-------|
-0---------------|-3-------2---3---||-3---------------||-----------------|

-----------------||---------|---------||---12---12-|---12---------|
-----------------::---------|---------::-----------|------7-8-7---|
-----0-------0---||---------|---------||-9----9----|-9----------7-|
---4---4---4---4-||-----5-5-|-----7-7-||-----------|--------------|
-5-------5-------::-2-2-3-3-|-5-5-5-5-::-----------|--------------|
-----------------||-0-0-----|-3-3-----||-----------|--------------|

---12---12-|---12-------||-----------------|-----------------|-----------------|
-----------|------7-8-7-:|-----------------|-----------------|-----------------|
-9----9----|-9----------||-----------------|-----------------|-----------------|
-----------|------------||-5-5-5-5-5-5-5-5-|-7-7-7-7-7-7-7-7-|-9-9-9-9-9-9-9-9-|
-----------|------------:|-3-3-3-3-3-3-3-3-|-5-5-5-5-5-5-5-5-|-7-7-7-7-7-7-7-7-|
-----------|------------||-----------------|-----------------|-----------------|
[ Tab from: http://www.guitartabs.cc/tabs/d/die_toten_hosen/pushed_again_tab.html ]
------------|-----------------|-----------------|-----------------|
------------|-----------------|-----------------|-----------------|
------------|-----------------|-----------------|-----------------|
-----%------|-5-5-5-5-5-5-5-5-|-7-7-7-7-7-7-7-7-|-1-1-4-4-2-2-1-1-|
------------|-3-3-3-3-3-3-3-3-|-5-5-5-5-5-5-5-5-|-2-2-2-2-2-2-2-2-|
------------|-----------------|-----------------|-----------------|

-------------------|----------|--------|---------|---|---|-----|---|---16-|
-------------------|----------|--------|---------|---|---|-----|---|------|
-----0--------4(5)-|-4-4(5)-4-|-4-4(5)-|-4-4-5-4-|-4-|-4-|-2---|---|------|
---4---4----4------|----------|--------|---------|---|---|---4-|---|------|
-------------------|----------|--------|---------|---|---|-----|-2-|-2----|
-3-------2---------|----------|--------|---------|---|---|-----|---|------|

-------------|---------|---------|-------------|
-------------|---------|---------|-------------|
-------------|---------|---------|-------------|
-------------|---------|---------|-------------|
-------0-0---|-----2-2-|-----0-0-|-------------|
-0-0---------|-3-3-----|-0-0-----|-3-3-2-2-3-2-|

---------|---------|---------|--------------|---------|
---------|---------|---------|-8-8-8-10-8-7-|---------|
---------|---------|---------|-9-9----------|---------|
---------|---------|-----2-2-|--------------|-----5-5-|
-----0-0-|-----2-2-|-2-2-0-0-|--------------|-2-2-3-3-|
-0-0-----|-3-3-----|-0-0-----|--------------|-0-0-----|

---------||-----------------|-----------------|-------------------------|
---------::-----------------|-----------------|-------------------------|
---------||-----------------|-----------------|-12-12-12-12-12-12-11-11-|
-----7-7-||-5-5-5-5-5-5-5-5-|-7-7-7-7-7-7-7-7-|-------------------------|
-5-5-5-5-::-3-3-3-3-3-3-3-3-|-5-5-5-5-5-5-5-5-|-10-10-10-10-10-10--9--9-|
-3-3-----||-----------------|-----------------|-------------------------|

-----------------|-----------------|-----------------|
-----------------|-----------------|-----------------|
-9-9-9-9-9-7-5-4-|-----------------|-----------------|
-----------------|-5-5-5-5-5-5-5-5-|-7-7-7-7-7-7-7-7-|
-7-7-7-7-7-5-3-2-|-3-3-3-3-3-3-3-3-|-5-5-5-5-5-5-5-5-|
-----------------|-----------------|-----------------|
1.                                  2.
-7-7-7-7-7-7-7-7-|-7-7-7-7-7-7-7-7-||-----------------|-----------------|---|
-7-7-7-7-7-7-7-7-|-7-7-7-7-7-7-7-7-:|-----------------|-----------------|-0-|
-----------------|-----------------||-----------------|-----0-------0---|-0-|
-----------------|-----------------||-4-4-4-4-4-4-4-4-|---4---4---4---4-|-2-|
-----------------|-----------------:|-2-2-2-2-2-2-2-2-|-----------------|-2-|
-----------------|-----------------||-----------------|-3-------2-------|-0-|
Comments