Die Toten Hosen - Pushed Again Chords & Tabs

 

Pushed Again Chords & Tabs

Die Toten Hosen Chords & Tabs

Version: 1 Type: Bass Tab 0 ratings
1 star 2 stars 3 stars 4 stars 5 stars
comments

Pushed Again Bass Tab

   
Guitar Intro

G---------------------------------
D--------------------------------- 2X
A---------3-3-3-3---------5-5-5-5-
E-0-0-0-0---------3-3-3-3---------

G-------------------------------------------------------------
D-------------------------------------------------------------
A-------------------------------------------------------------
E-00--------------00--------------00------------00------------

G---------------------------------
D---------------------------------
A---------3-3-3-3---------5-5-5-5- 6X
E-0-0-0-0---------3-3-3-3---------

G ?
D ?
A ?
E ?
[ Tab from: http://www.guitartabs.cc/tabs/d/die_toten_hosen/pushed_again_btab.html ]
G---------------------------------
D---------------------------------
A---------3-3-3-3---------5-5-5-5- 6X
E-0-0-0-0---------3-3-3-3---------
                  *4th time play 'til here
G-----------------|-----------------
D-----------------|-----------------
A-----------------|-5-5-5-5-5-5-5-5- 3.5X*
E-3-3-3-3-3-3-3-3-|-----------------

G ?
D ?
A ?
E ?

G---------------------------------
D--------------------------------- 
A------00-----22-------00--------- 
E-00-------33-----00-------33-22\-

G---------------------------------
D--------------------------------- 
A------00-----22-------00--------- 
E-00-------33-----00-------33-22\-

G---------------------------------
D---------------------------------
A---------3-3-3-3---------5-5-5-5- 4X
E-0-0-0-0---------3-3-3-3---------

G---------------------------------
D---------------------------------
A-----------------5-5-5-5-5-5-5-5- 6X
E-3-3-3-3-3-3-3-3-----------------

G ?
D ?
A ?
E ?

Please help here... If someone knbows the "Misterious Bit", please e-mail me at pc.bianc@terra.com.br
Comments