Die Toten Hosen - Cokane In My Brain Chords & Tabs

 

Die Toten Hosen Chords & Tabs

Version: 1 Type: Tab 0 ratings
1 star 2 stars 3 stars 4 stars 5 stars
comments

Cokane In My Brain Tab

   
-----------------------------------------------------------------------------
			  Cokane In My Brain - Die Toten Hosen
-----------------------------------------------------------------------------
Tabbed by: JaNein24
Email: alexanderschacht@gmx.de

Tuning: half-step down


INTRO p.1:			    
eb|----------------------------------|
Bb|----------------------------------|
Gb|----------------------------------|
Db|----------------------------------|
Ab|---9/11-----7/9-----5/7-----4/6---|
Eb|-9--------9-------9-------9-------|

Intro p.2:
eb|----------------------------------|------------------------------------|
Bb|----------------------------------|------------------------------------|
Gb|6~~---------------------888-444---|--6-----4--6--9--6---666---4-6-4-6--|x2
Db|6~~---------------------888-444---|--6--6--4--6--9--6---666-6-4-6-4-6--|
Ab|4~~---------------------666-222---|--4--6--2--4--7--4---444-6-2-4-2-4--|
Eb|----------------------------------|-----4-------------------4----------|

VERSE:
eb|----------------------------------|
Bb|----------------------------------|
Gb|----------------------------------|x5
Db|----------------------------------|
Ab|-444-----4-7-4--444-----4---4-----|
Eb|-----4-7------------4-7---7-------|
pm ..........     .........

INTRO p.1:
eb|----------------------------------|
Bb|----------------------------------|
Gb|----------------------------------|
Db|----------------------------------|
Ab|---9/11-----7/9-----5/7-----4/6---|
Eb|-9--------9-------9-------9-------|

CHORUS:
eb|----------------------------------|
Bb|----------------------------------|
Gb|-66-x-666-5-66-x-66\555-----------|x4
Db|-66-x-666-5-66-x-66\555-666-------|
Ab|-44-x-444-3-44-x-44\333-666-------|
Eb|------------------------444-------|

VERSE:
eb|----------------------------------|
Bb|----------------------------------|
Gb|----------------------------------|x5
Db|----------------------------------|
Ab|-444-----4-7-4--444-----4---4-----|
Eb|-----4-7------------4-7---7-------|
pm ..........     .........
[ Tab from: http://www.guitartabs.cc/tabs/d/die_toten_hosen/cokane_in_my_brain_tab.html ]
CHORUS:
eb|----------------------------------|
Bb|----------------------------------|
Gb|-66-x-666-5-66-x-66\555-----------|x4
Db|-66-x-666-5-66-x-66\555-666-------|
Ab|-44-x-444-3-44-x-44\333-666-------|
Eb|------------------------444-------|

INTRO p.1:
eb|----------------------------------|
Bb|----------------------------------|
Gb|----------------------------------|x2
Db|----------------------------------|
Ab|---9/11-----7/9-----5/7-----4/6---|
Eb|-9--------9-------9-------9-------|

VERSE:
eb|----------------------------------|
Bb|----------------------------------|
Gb|----------------------------------|x8
Db|----------------------------------|
Ab|-444-----4-7-4--444-----4---4-----|
Eb|-----4-7------------4-7---7-------|
pm ..........     .........

CHORUS:
eb|----------------------------------|
Bb|----------------------------------|
Gb|-66-x-666-5-66-x-66\555-----------|x4
Db|-66-x-666-5-66-x-66\555-666-------|
Ab|-44-x-444-3-44-x-44\333-666-------|
Eb|------------------------444-------|

CHORUS p.2:
eb|-------------------------------------|
Bb|-------------------------------------|
Gb|-------------------22222222-44444444-|x2
Db|-44444444-22222222-22222222-44444444-|
Ab|-44444444-22222222-00000000-22222222-|
Eb|-22222222-00000000-------------------|

OUTRO:
eb|--------------------------------------------------------|
Bb|--------------------------------------------------------|
Gb|-66---66-666-66-666-66-666-66-666-66-666-66-666-66-666--|
Db|-66---66-666-66-666-66-666-66-666-66-666-66-666-66-666--|
Ab|-44---44-444-44-444-44-444-44-444-44-444-44-444-44-444--|
Eb|--------------------------------------------------------|

That's it! I hope you enjoyed it. Feedback to my email address.

************************************

| /   slide up
| \   slide down
| ~~  let ring
| h   hammer-on
| p   pull-off
| ~   vibrato
| +   harmonic
| x   Mute note
| b   Bend
| pb  Pre-bend
| br  Bend release
| pbr Pre-bend release
| brb Bend release bend

************************************
Comments