Die Toten Hosen - Bonnie And Clyde Chords & Tabs

 

Die Toten Hosen Chords & Tabs

Version: 1 Type: Tab 0 ratings
1 star 2 stars 3 stars 4 stars 5 stars
comments

Bonnie And Clyde Tab

   
Bonnie & Clyde


[Intro]

1st guitar:

E |-------------------------------------------------------------------|
H |-------------------------------------------------------------------|
G |--2----4-2-0---0-0------0-2----2----4-2-0---0-0------0-------------|
D |-------------2--------2-------------------2--------2---4-----------|
A |-------------------------------------------------------------------|
E |-------------------------------------------------------------------|



2nd guitar: (palm muted)

     Am              G               C               D
E |:-----------------------------------------------------------------:|
H |:-----------------------------------------------------------------:|
G |:---------------------------------5-5-5-5-5-5-5-5-7-7-7-7-7-7-7-7-:|
D |:-7-7-7-7-7-7-7-7-5-5-5-5-5-5-5-5-5-5-5-5-5-5-5-5-7-7-7-7-7-7-7-7-:|
A |:-7-7-7-7-7-7-7-7-5-5-5-5-5-5-5-5-3-3-3-3-3-3-3-3-5-5-5-5-5-5-5-5-:|
E |:-5-5-5-5-5-5-5-5-3-3-3-3-3-3-3-3---------------------------------:|


[Strophe]

1st guitar:

      Am          G           C           D
E |:-----------------------------------------------------------------:|
H |:-----------------------------------------------------------------:|
G |:--------------------------5--5--5--5--7--7--7--7-----------------:|
D |:--7--7--7--7--5--5--5--5--5--5--5--5--7--7--7--7-----------------:|
A |:--7--7--7--7--5--5--5--5--3--3--3--3--5--5--5--5-----------------:|
E |:--5--5--5--5--3--3--3--3-----------------------------------------:|

     Am          F           D           C     H
E |-------------------------------------------------------------------|
H |-------------------------------------------------------------------|
G |--------------------------7--7--7--7--5--5--4--4-------------------|
D |--7--7--7--7--3--3--3--3--7--7--7--7--5--5--4--4-------------------|
A |--7--7--7--7--3--3--3--3--5--5--5--5--3--3--2--2-------------------|
E |--5--5--5--5--1--1--1--1-------------------------------------------|

     Am          F           D           E
E |-------------------------------------------------------------------|
H |-------------------------------------------------------------------|
G |--------------------------7--7--7--7--9-9-9-9-9-9-9-9--------------|
D |--7--7--7--7--3--3--3--3--7--7--7--7--9-9-9-9-9-9-9-9--------------|
A |--7--7--7--7--3--3--3--3--5--5--5--5--7-7-7-7-7-7-7-7--------------|
E |--5--5--5--5--1--1--1--1-------------------------------------------|

2nd guitar:
gleiche chords, aber anschlag auf jeden achtel und abgedaempft


[Refrain]

     C              Am             F
E |-------------------------------------------------------------------|
H |-------------------------------------------------------------------|
G |--5--5-5-5-5-5-5---------------------------------------------------|
D |--5--5-5-5-5-5-5-7--7-7-7-7-7-7-3--3-3-3-3-3-3-3-3-3-3-3-3-3-3-----|
A |--3--3-3-3-3-3-3-7--7-7-7-7-7-7-3--3-3-3-3-3-3-3-3-3-3-3-3-3-3-----|
E |-----------------5--5-5-5-5-5-5-1--1-1-1-1-1-1-1-1-1-1-1-1-1-1-----|
[ Tab from: http://www.guitartabs.cc/tabs/d/die_toten_hosen/bonnie_and_clyde_tab.html ]
     C              F              G
E |-------------------------------------------------------------------|
H |-------------------------------------------------------------------|
G |--5--5-5-5-5-5-5---------------------------------------------------|
D |--5--5-5-5-5-5-5-3--3-3-3-3-3-3-5--5-5-5-5-5-5-5-5-5-5-5-5-5-5-----|
A |--3--3-3-3-3-3-3-3--3-3-3-3-3-3-5--5-5-5-5-5-5-5-5-5-5-5-5-5-5-----|
E |-----------------1--1-1-1-1-1-1-3--3-3-3-3-3-3-3-3-3-3-3-3-3-3-----|


[Intro]
[Strophe]
[Refrain]

[Solo]

E |--------------------------------------------|:--------------------:|
H |--------------------------------------------|:--------------------:|
G |--------------------4-------------------2---|:-4--------4---4-----:|
D |-------5-4-2----------------5-4-2-----------|:------5-----5---5---:|
A |-------------2-3------------------2-3-------|:--------------------:|
E |--------------------------------------------|:--------------------:|


E |--8-8-8-... -----------10-10-10-... -------------------------------|
H |--8-8-8-... (16 times)-10-10-10-... (16 times)---------------------|
G |-------------------------------------------------------------------|
D |-------------------------------------------------------------------|
A |-------------------------------------------------------------------|
E |-------------------------------------------------------------------|


[Strophe]
[Refrain]

[Refrain] (the last time)

     P.M.--       P.M.--       P.M.--       P.M.--
E |-------------------------------------------------------------------|
H |-------------------------------------------------------------------|
G |--5-5-5-5-5--5-----------------------------------------------------|
D |--5-5-5-5-5--5--3-3-3-3-3--3--3-3-3-3-3--3--3-3-3-3-3--3-----------|
A |--3-3-3-3-3--3--3-3-3-3-3--3--3-3-3-3-3--3--3-3-3-3-3--3-----------|
E |----------------5-5-5-5-5--5--1-1-1-1-1--1--1-1-1-1-1--1-----------|

     P.M.--       P.M.--       P.M.--       P.M.--
E |-------------------------------------------------------------------|
H |-------------------------------------------------------------------|
G |--5-5-5-5-5--5-----------------------------------------------------|
D |--5-5-5-5-5--5--3-3-3-3-3--3--5-5-5-5-5--5--5-5-5-5-5--5-----------|
A |--3-3-3-3-3--3--3-3-3-3-3--3--5-5-5-5-5--5--5-5-5-5-5--5-----------|
E |----------------1-1-1-1-1--1--3-3-3-3-3--3--3-3-3-3-3--3-----------|

     P.M.--       P.M.--       P.M.--       P.M.--
E |-------------------------------------------------------------------|
H |-------------------------------------------------------------------|
G |--5-5-5-5-5--5-----------------------------------------------------|
D |--5-5-5-5-5--5--3-3-3-3-3--3--3-3-3-3-3--3--3-3-3-3-3--3-----------|
A |--3-3-3-3-3--3--3-3-3-3-3--3--3-3-3-3-3--3--3-3-3-3-3--3-----------|
E |----------------5-5-5-5-5--5--1-1-1-1-1--1--1-1-1-1-1--1-----------|


E |-------------------------------------------------------------------|
H |-------------------------------------------------------------------|
G |--5----------------------------------------------------------------|
D |--5-------------3-------------5------------------------------------|
A |--3-------------3-------------5------------------------------------|
E |----------------1-------------3------------------------------------
Comments