Die Sterne - Aber Andererseits Chords & Tabs

 

Aber Andererseits Chords & Tabs

Die Sterne Chords & Tabs

Version: 1 Type: Tab

Aber Andererseits Tab

   
Artist: Die Sterne
Title: Aber andererseits
Album: Raeuber und Gedaerm
Artist's website: www.diesterne.de

Tabbed by: Felix Huesken
eMail: the-1@gmx.net


The chord-patterns for verse and chorus are always the same.
Listen to the song for the rythm.

-----------------------------------------------------------

Chords (all barré):

    Am   E   Dm   G

e --5----7----5----3---|
B --5----9----6----3---|
G --5----9----7----4---|
D --7----9----7----5---|
A --7----7----5----5---|
E --5----x----x----3---|

-----------------------------------------------------------


===Intro:

e ------------------------------------|
B ------------------------------------|
G ------------------------------------|
D ------------------------------------|
A ------------3-5-7---5--5-5-5-3------|
E ---5--5-5-5---------------------5---|

e ------------------------------------|
B ------------------------------------|
G ------------------------------------|
D ------------------------------------|
A ------------3-5-7---5--5-5-5-3------|
E ---5--5-5-5---------------------5---|


===Verse:

Am
ich bin nicht sauber,
Am
ich bin nicht sauber,
    E                                 Am
ich bin, ich bin, ich bin, ich bin verdreckt

Am
ich bin nicht sauber,
Am
ich muss mich waschen,
    E                                        Am (and so on...)
ihr glaubt ja gar nicht, was so alles an mir klebt

ich bin nicht sauber,
ich bin nicht sauber,
ich bin, ich bin, ich bin, ich bin verdreckt

ich bin nicht sauber,
ich muss mich waschen,
ihr glaubt ja gar nicht, was so alles an mir klebt - aber


===Chorus:

Dm                               G
andererseits sind alle übergänge fliessend,
        Dm                           E
man ist nie wirklich sauber und kein zustand ist perfekt


===Verse:

ich dreh am rad,
ich dreh am rad,
ich dreh, ich dreh, ich dreh, ich dreh am rad

ich dreh am rad,
ich dreh am rad,
ich dreh, ich dreh, ich dreh, ich dreh am rad

ich hab keine nerven,
ich hab keine nerven,
ich habe keine, keine, keine, keine nerven

ich hab keine nerven,
ich hab keine nerven,
ich habe keine, keine, keine, keine, keine - ach quatsch


===Chorus:

jeder hat doch nerven und zu sagen das man keine nerven hat,
ist doch auch wissenschaftlich eigentlich nicht korrekt, oder?


===Verse:

ich bin am ende,
ich bin am ende,
ich bin, ich bin, ich bin, ich bin am ende

es geht mir schlecht,
es geht mir schlecht,
es geht mir wirklich, wirklich, wirklich, wirklich schlecht
[ Tab from: http://www.guitartabs.cc/tabs/d/die_sterne/aber_andererseits_tab.html ]
ich bin am ende,
ich bin am ende,
ich bin, ich bin, ich bin, ich bin am ende

es geht mir schlecht,
es geht mir schlecht,
es geht mir wirklich, wirklich, wirklich, wirklich schlecht - obwohl


===Chorus:

wenn es mir so richtig schlecht geht, das geb ich zu,
dann red ich nicht so viel darüber, wie jetzt


===Solo:

e ------------------------------------|
B ------------------------------------|
G ------------------------------------|
D ------------------------------------|
A ------------3-5-7---5--5-5-5-3------|
E ---5--5-5-5---------------------5---|

e ------------------------------------|
B ------------------------------------|
G ------------------------------------|
D ------------------------------------|
A ------------3-5-7---5--5-5-5-3------|
E ---5--5-5-5---------------------5---|

e ------------------------------------|
B ------------------------------------|
G ------------------------------------|
D ---7--7-7-7------------------5------|
A ------------3-5-7---5--5-5-5----7---|
E ------------------------------------|

e ----------------------------------|
B ----------------------------------|
G ----------------------------------|
D ---7--7-7-7-----------------------|
A ------------3-5-7---5--5-5-5-3----|
E --------------------------------5-|

e --------------------------------------------------|
B --------------------------------------------------|
G --------------------------------------------------|
D --------------------------------------------------|
A -5-7-8---3-3---5-7---8-7-5---7-8--3-3---5-7---11--|
E --------------------------------------------------|


===Verse:

all diese zweifel,
all diese zweifel,
ich bin so schrecklich, schrecklich verwirrt

all diese zweifel,
all diese zweifel,
ich bin so schrecklich, schrecklich verwirrt

ich kann nichts entscheiden,
ich kann nichts entscheiden,
ich habe immer das gefühl ich hab mich geirrt

ich kann nichts entscheiden,
ich kann nichts entscheiden,
ich habe immer das gefühl ich hab mich geirrt - naja


===Chorus:

man kann immernoch so tun als wäre man sicher,
als würde man sich selber glauben, was man den anderen erzählt


===Ending:

e ------------------------------------|
B ------------------------------------|
G ------------------------------------|
D ------------------------------------|
A ------------3-5-7---5--5-5-5-3------|
E ---5--5-5-5---------------------5---|

e ------------------------------------------|
B ------------------------------------------|
G ------------------------------------------|
D ------------------------------------------|
A ------------3-5-7---5--5-5-5-3------------|
E ---5--5-5-5---------------------5-5-3-5---|


That's it.
Send comments and/or corrections to "the-1@gmx.net".