Die Happy - Supersonic Speed Chords & Tabs

 

Supersonic Speed Chords & Tabs

Die Happy Chords & Tabs

Version: 1 Type: Tab 0 ratings
1 star 2 stars 3 stars 4 stars 5 stars
comments

Supersonic Speed Tab

sry...but this isnt die happy...its take to know...but they dont have it on their band 
did it like this ;)
take to know is a quite young band.....but veeeery good
that song is their 3rd single...and you haveeeeeee to hear it..i swear ;)

--------------------------------------------|
--------------------------------------------|
----------8-x-8-8--4-x-4-4------------------|
-6-x-6-6--8-x-8-8--4-x-4-4--4-4-4-4-4-4-4-4-|
-6-x-6-6--6-x-6-6--2-x-2-2--4-4-4-4-4-4-4-4-|
-4-x-4-4--------------------2-2-2-2-2-2-2-2-|
[ Tab from: http://www.guitartabs.cc/tabs/d/die_happy/supersonic_speed_tab.html ]
Riff 1
you have to liusten to the song to get the right rhytm ..but its quite easey.. so learn 
its a Perfect Song

-------------------------------------------------------------------------|
-------------------------------------------------------------------------|
-8-8-8-8----------6-6-6--------------------------------------------------|
-8-8-8-8--9-9-9-9-6-6-6-6------------------------------------------------|
-6-6-6-6--9-9-9-9-4-4-4-6------------------------------------------------|
----------7-7-7-7-------4------------------------------------------------|

thats all in palm mute..and easey..but it sounds nice xD
Comments