Die Aerzte - Westerland Chords & Tabs

 

Westerland Chords & Tabs

Die Aerzte Chords & Tabs

Version: 1 Type: Tab 0 ratings
1 star 2 stars 3 stars 4 stars 5 stars
comments

Westerland Tab

   
#---------------------------PLEASE-NOTE----------------------------#
#This file is the author's own work and represents their           #
#interpretation of the song. You may only use this file for private#
#study, scholarship, or research.                                  #
#------------------------------------------------------------------#

By: Alex Nast
Subject: TAB: Die Aerzte - Westerland

Explanations:

fl    = flascholé tone (don't know the correct spelling, but i hope
                        you understand, what i'm talking about)
12/14 = slide

x     = dead note

Intro:

  G         D                    e     D C
|-------------|----------------|-----------|----------------------------------|
|-------------|-fl-7-----------|-----------|-fl-5-------------fl-5------------|
|-----------7-|------fl-7------|-9-9-9-7-5-|------fl-5--------------fl-5------|
|-5-5-5-5-5-7-|-----------fl-7-|-9-9-9-7-5-|-------------fl-5------------fl-5-|
|-5-5-5-5-5-5-|----------------|-7-7-7-5-3-|----------------------------------|
|-3-3-3-3-3---|----------------|-----------|----------------------------------|


Verse:

  G                                 G           D
|-------------|-------------------|-----------|---------15----13----12---10-|
|-------------|-x-8-8-7-8-8-8-----|-----------|---12/14----12----11----9----|
|-------------|-x-7-7-7-7-7-7-----|-------x-x-|-7---------------------------|
|-5-----------|---------------x-x-|-5-----x-x-|-7---------------------------|
|-5-----------|---------------x-x-|-5-----x-x-|-5---------------------------|
|-3-----------|---------------x-x-|-3---------|-----------------------------|


  G                                 D           G
|-------------|-------------------|-----------|-----------------------------|
|-------------|-x-8-8-7-8-8-8-----|-----------|-----------------------------|
|-5-----------|-x-7-7-7-7-7-7-----|-------x-x-|-7---------------------------|
|-5-----------|---------------x-x-|-5-----x-x-|-7---------------------------|
|-5-----------|---------------x-x-|-5-----x-x-|-5---------------------------|
|-3-----------|---------------x-x-|-3---------|-----------------------------|


Break:

  C               e               C               D
|---------------|---------------|---------------|---------------|
|---------------|---------------|---------------|---------------|
|-5---5-5-x-5-x-|-0---0-0-x-0-x-|-5---5-5-x-5-x-|-7---7-7-x-7-x-|
|-5---5-5-x-5-x-|-2---2-2-x-2-x-|-5---5-5-x-5-x-|-7---7-7-x-7-x-|
|-3---3-3-x-3-x-|-2---2-2-x-2-x-|-3---3-3-x-3-x-|-5---5-5-x-5-x-|
|---------------|---------------|---------------|---------------|


Chorus:
[ Tab from: http://www.guitartabs.cc/tabs/d/die_aerzte/westerland_tab.html ]
Repeat 3x:
  G         D                    e     D C
|-------------|----------------|-----------|---------------------------------|
|-------------|-fl-7-----------|-----------|-fl-5-------------fl-5-----------
|-----------7-|------fl-7------|-9-9-9-7-5-|------fl-5--------------fl-5-----|
|-5-5-5-5-5-7-|-----------fl-7-|-9-9-9-7-5-|-------------fl-5------------fl-5|
|-5-5-5-5-5-5-|----------------|-7-7-7-5-3-|---------------------------------|
|-3-3-3-3-3---|----------------|-----------|---------------------------------|

then once:
  a         C   D   G             
|---------------------|
|---------------------|
|-----------5-5-7-x---|
|-7-7-x-x-7-5-5-7-x-5-|
|-7-7-x-x-7-3-3-5-x-5-|
|-5-5-x-x-5---------3-|


Bridge:

  F   G   F   G           G             G           D 
|---|---|---|-------------------------|-------------------------|
|---|---|---|-------------------------|-------------------------|
|---|---|---|-------------------------|-------------7-7-x-x-x-x-|
|-3-|-5-|-3-|-5-5-x-x-x-x-5-5-x-x-x-x-|-5-5-x-x-x-x-7-7-x-x-x-x-|
|-3-|-5-|-3-|-5-5-x-x-x-x-5-5-x-x-x-x-|-5-5-x-x-x-x-5-5-x-x-x-x-|
|-1-|-3-|-1-|-3-3-x-x-x-x-3-3-x-x-x-x-|-3-3-x-x-x-x-------------|

  D           D             C       C
|-------------------------|-----------------|
|-------------------------|-----------------|
|-7-7-x-x-x-x-7-7-x-x-x-x-|-5-5-x-x-5-5-x-x-|
|-7-7-x-x-x-x-7-7-x-x-x-x-|-5-5-x-x-5-5-x-x-|
|-5-5-x-x-x-x-5-5-x-x-x-x-|-3-3-x-x-3-3-x-x-|
|-------------------------|-----------------|


Ending:

Repeat 3x:
  G         D                  e     D C
|-------------|----------------|-----------|---------------------------------|
|-------------|-fl-7-----------|-----------|-fl-5-------------fl-5-----------|
|-----------7-|------fl-7------|-9-9-9-7-5-|------fl-5--------------fl-5-----|
|-5-5-5-5-5-7-|-----------fl-7-|-9-9-9-7-5-|-------------fl-5------------fl-5|
|-5-5-5-5-5-5-|----------------|-7-7-7-5-3-|---------------------------------|
|-3-3-3-3-3---|----------------|-----------|---------------------------------|

  a         h             C         D             a         h         C   D G 
|-----------------------|-----------------------|-------------------|---|-----|
|-----------------------|-----------------------|-------------------|---|-----|
|-----------------------|-5-5-x-x-x-7-7-x-x-x-x-|-------------------|-5-|-7---|
|-7-7-x-x-x-9-9-x-x-x-x-|-5-5-x-x-x-7-7-x-x-x-x-|-7-7-x-x-x-9-9-9-9-|-5-|-7-5-|
|-7-7-x-x-x-9-9-x-x-x-x-|-3-3-x-x-x-5-5-x-x-x-x-|-7-7-x-x-x-9-9-9-9-|-3-|-5-5-|
|-5-5-x-x-x-7-7-x-x-x-x-|-----------------------|-5-5-x-x-x-7-7-7-7-|---|---3-|


Order:  Intro 4x
        Verse+Break 2x
        Chorus
        Verse+ Break
        Chorus
        Bridge
        Chorus
        Ending
Comments