Die Aerzte - Super Drei Chords & Tabs

 

Super Drei Chords & Tabs

Die Aerzte Chords & Tabs

Version: 1 Type: Tab 0 ratings
1 star 2 stars 3 stars 4 stars 5 stars
comments

Super Drei Tab

   
[Intro, 2x]

  d            Bb          G           A      Bb  C  
e:------------|-----------|-----------|-----------------
h:------------|-----------|-----------|-----------------
g:------------|-----------|-----------|-----------------
d:------------|-----------|-----------|-----------------
A:--5---8-5---|-5---8-5---|-5---8-5---|-7---7-8-7-5-----
E:----------8-|---------8-|---------8-|-------------8---


d                         Bb                             G
Jetzt ist es wieder mal soweit, es war auch allerhöchste Zeit
                            A            Bb        C
Und wir sind wieder mal genial - tut uns furchtbar leid!
d                          Bb                      G
Wie immer schlauer als der Rest, also bitte keinen Neid
                        A                 Bb      C
Halt die beste Band der Welt, bei aller Bescheidenheit
h                      G                     A
Haben wir Euch gefehlt? Habt Ihr uns vermißt?
                         E                        h
Ist Euch jetzt klar, daß mit uns die Welt schöner ist?
                     G                     A
Seid Ihr wieder froh? Na, was für ein Glück...
                        Bb         C               d   Bb  G   A
Wir sagen 'Hallo', denn wir sind zurück - wir sind da....
Bb       C      d   Bb  G   A   Bb C
Wir sind wieder da....
[ Tab from: http://www.guitartabs.cc/tabs/d/die_aerzte/super_drei_tab.html ]
d                           Bb                             G
Wir lungern nur an Schulen 'rum, verkaufen kleinen Kindern Crack
                      A                 Bb     C     d
Wir singen unzüchtige Lieder und geht'n abends lange weg
                       Bb                               G
Tischmanieren sind uns fremd, wir essen selten mit Besteck
                             A               Bb     C
Die Plattenfirma schickt uns jedes Jahr 'nen dicken Scheck
h                    G                       A
Habt Ihr uns vermißt? Haben wir Euch gefehlt?
                    E                    h
Habt Ihr heimlich geweint und die Tage gezählt?
                    G                    A
Ja, wir sind zurück, und es riecht nach Urin 

                     Bb     C  | d/ Bb/ G/ A Bb C | d/ Bb/ G/ A Bb C(*) |
Wir sind die Ärzte - aus Berlin


["Solo", 2x]
  d              Bb              G           A      Bb  C  
e:-10--13-10----|-10--13-10-----|-10--13-10----|-12--12-13-12-10-----
h:-----------13-|-----------13--|-----------13-|-----------------13--
g:--------------|---------------|--------------|---------------------
d:--------------|---------------|--------------|---------------------
A:--------------|---------------|--------------|---------------------
E:--------------|---------------|--------------|---------------------



[Mit Beginn des Outros:]
e:---17~/14~(b)--
h:--------------
.

C(*)    F    C             d      Bb
Wie ein Hagelsturm an einem Sommertag
        F           D#            d             C#
Wie ein plötzlicher Mißton in der schönsten Melodie
    F              Bb           d              C
Die einen finden's Scheiße, die andern findens stark
  G             G-A-Bb     C           F
Genau wie jedes Jahr - Wir sind wieder da...
Comments