Die Aerzte - Schrei Nach Liebe Chords & Tabs

 

Schrei Nach Liebe Chords & Tabs

Die Aerzte Chords & Tabs

Version: 2 Type: Tab 0 ratings
1 star 2 stars 3 stars 4 stars 5 stars
comments

Schrei Nach Liebe Tab

   
"Schrei nach Liebe" of DIE AERZTE tabbed by Pepi Schmidauer (Austria)


intro

   D  D  D  D  D
e -2--2--2--2--2
B -3--3--3--3--3
G -2--2--2--2--2 and so on
D -0--0--0--0--0
A --------------
E --------------


main part

e ------------------------------------------------------------
B ------------------------------------------------------------
G -----------9-10-9---------------------------9-10-12-10-9----
D -12--12-12--------10-12--10-12-10-12--12-12--------------10-
A ------------------------------------------------------------ 
E ------------------------------------------------------------

play this part 4 times and then play

           D D D
e ---------1-1-1-
B ---------2-2-2-
G ---------1-1-1-
D -12------0-0-0-
A ---------------
E ---------------


verse

   C  C C  C  C C  D  D D  Bb BbBb      for Bb it's easier to play
e -0--0-0--0--0-0--1--1-1--1--1-1--                            e ---
B -1--1-1--1--1-1--2--2-2--3--3-3--                            B ---
G -0--0-0--0--0-0--1--1-1--3--3-3--                            G -3-
D -2--2-2--2--2-2--0--0-0--3--3-3--                            D -3-
A -3--3-3--3--3-3----------1--1-1--                            A -1-
E -------------------------1--1-1--                            E ---

play verse twice and then comes the fill

e ------------
B ------------
G -9-11-9-5-7-
D ------------
A ------------
E ------------

play again verse and then comes

   C  C C  C  C C  D   D D D
e -0--0-0--0--0-0--1---1-1-1-
B -1--1-1--1--1-1--2---2-2-2-
G -0--0-0--0--0-0--1---1-1-1-
D -2--2-2--2--2-2--0---0-0-0-
A -3--3-3--3--3-3------------
E ---------------------------


chorus

   BbBbBb C C C  D D D D D C C   BbBbBb C C C  G G G  A
e -1-1-1--0-0-0--1-1-1-1-1-0-0---1-1-1--0-0-0--3-3-3--0---
B -3-3-3--1-1-1--2-2-2-2-2-1-1---3-3-3--1-1-1--0-0-0--2---
G -3-3-3--0-0-0--1-1-1-1-1-0-0---3-3-3--0-0-0--0-0-0--2---
D -3-3-3--2-2-2--0-0-0-0-0-2-2---3-3-3--2-2-2--0-0-0--2---
A -1-1-1--3-3-3------------3-3---1-1-1--3-3-3--2-2-2--0---
E -1-1-1-------------------------1-1-1---------3-3-3------

   BbBbBb C C C  e e e e e C C  BbBbBb C C C  D D D D   D
e -1-1-1--0-0-0--0-0-0-0-0-0-0--1-1-1--0-0-0--1-1-1-1---1-
B -3-3-3--1-1-1--4-4-4-4-4-1-1--3-3-3--1-1-1--2-2-2-2---2-
G -3-3-3--0-0-0--3-3-3-3-3-0-0--3-3-3--0-0-0--1-1-1-1---1-
D -3-3-3--2-2-2--1-1-1-1-1-2-2--3-3-3--2-2-2--0-0-0-0---0-
A -1-1-1--3-3-3------------3-3--1-1-1--3-3-3--------------
E -1-1-1------------------------1-1-1---------------------


verse

   C  C C  C  C C  D  D D  Bb BbBb 
e -0--0-0--0--0-0--1--1-1--1--1-1--
B -1--1-1--1--1-1--2--2-2--3--3-3--
G -0--0-0--0--0-0--1--1-1--3--3-3--
D -2--2-2--2--2-2--0--0-0--3--3-3--
A -3--3-3--3--3-3----------1--1-1--
E -------------------------1--1-1--

play verse twice and then comes the fill

e ------------
B ------------
G -9-11-9-5-7-
D ------------
A ------------
E ------------

play again verse and then comes

   C  C C  C  C C  D   D D D 
e -0--0-0--0--0-0--1---1-1-1-
B -1--1-1--1--1-1--2---2-2-2-
G -0--0-0--0--0-0--1---1-1-1-
D -2--2-2--2--2-2--0---0-0-0-
A -3--3-3--3--3-3------------
E ---------------------------


chorus
[ Tab from: http://www.guitartabs.cc/tabs/d/die_aerzte/schrei_nach_liebe_tab_ver_2.html ]
   BbBbBb C C C  D D D D D C C   BbBbBb C C C  G G G  A
e -1-1-1--0-0-0--1-1-1-1-1-0-0---1-1-1--0-0-0--3-3-3--0---
B -3-3-3--1-1-1--2-2-2-2-2-1-1---3-3-3--1-1-1--0-0-0--2---
G -3-3-3--0-0-0--1-1-1-1-1-0-0---3-3-3--0-0-0--0-0-0--2---
D -3-3-3--2-2-2--0-0-0-0-0-2-2---3-3-3--2-2-2--0-0-0--2---
A -1-1-1--3-3-3------------3-3---1-1-1--3-3-3--2-2-2--0---
E -1-1-1-------------------------1-1-1---------3-3-3------

   BbBbBb C C C  e e e e e C C  BbBbBb C C C  D D D D   D
e -1-1-1--0-0-0--0-0-0-0-0-0-0--1-1-1--0-0-0--1-1-1-1---1-
B -3-3-3--1-1-1--4-4-4-4-4-1-1--3-3-3--1-1-1--2-2-2-2---2-
G -3-3-3--0-0-0--3-3-3-3-3-0-0--3-3-3--0-0-0--1-1-1-1---1-
D -3-3-3--2-2-2--1-1-1-1-1-2-2--3-3-3--2-2-2--0-0-0-0---0-
A -1-1-1--3-3-3------------3-3--1-1-1--3-3-3--------------
E -1-1-1------------------------1-1-1---------------------


solo

e ----------------14-13---------------------------------------
B --15--13-15-13---------15-13---11-10-11--9-7-9\10\11-10-9-7-
G ------------------------------------------------------------
D ------------------------------------------------------------
A ------------------------------------------------------------
E ------------------------------------------------------------

e -10-12-13-12-13-15-13-15-17-15-17-21----
B ----------------------------------------
G ----------------------------------------
D ----------------------------------------
A ----------------------------------------
E ----------------------------------------


chorus

   BbBbBb C C C  D D D D D C C   BbBbBb C C C  G G G  A
e -1-1-1--0-0-0--1-1-1-1-1-0-0---1-1-1--0-0-0--3-3-3--0---
B -3-3-3--1-1-1--2-2-2-2-2-1-1---3-3-3--1-1-1--0-0-0--2---
G -3-3-3--0-0-0--1-1-1-1-1-0-0---3-3-3--0-0-0--0-0-0--2---
D -3-3-3--2-2-2--0-0-0-0-0-2-2---3-3-3--2-2-2--0-0-0--2---
A -1-1-1--3-3-3------------3-3---1-1-1--3-3-3--2-2-2--0---
E -1-1-1-------------------------1-1-1---------3-3-3------

   BbBbBb C C C  e e e e e C C  BbBbBb C C C  D D D D   D
e -1-1-1--0-0-0--0-0-0-0-0-0-0--1-1-1--0-0-0--1-1-1-1---1-
B -3-3-3--1-1-1--4-4-4-4-4-1-1--3-3-3--1-1-1--2-2-2-2---2-
G -3-3-3--0-0-0--3-3-3-3-3-0-0--3-3-3--0-0-0--1-1-1-1---1-
D -3-3-3--2-2-2--1-1-1-1-1-2-2--3-3-3--2-2-2--0-0-0-0---0-
A -1-1-1--3-3-3------------3-3--1-1-1--3-3-3--------------
E -1-1-1------------------------1-1-1---------------------


the last chorus is played like verse

   C  C C  C  C C  D  D D  Bb BbBb 
e -0--0-0--0--0-0--1--1-1--1--1-1--
B -1--1-1--1--1-1--2--2-2--3--3-3--
G -0--0-0--0--0-0--1--1-1--3--3-3--
D -2--2-2--2--2-2--0--0-0--3--3-3--
A -3--3-3--3--3-3----------1--1-1--
E -------------------------1--1-1--

play this part twice and then comes the fill

e ------------
B ------------
G -9-11-9-5-7-
D ------------
A ------------
E ------------

play again this part and then comes

   C  C C  C  C C  D   D   D   D
e -0--0-0--0--0-0--1---1---1---1-
B -1--1-1--1--1-1--2---2---2---2-
G -0--0-0--0--0-0--1---1---1---1-
D -2--2-2--2--2-2--0---0---0---0-
A -3--3-3--3--3-3----------------
E -------------------------------


the solo at the end of this song is the same as the chorus, but u have to play the
chord more times

So! That's all!!!
if u have questions os contact me at pepi_schmidauer@hotmail.com
Comments