Die Aerzte - Schrei Nach Liebe Chords & Tabs

 

Schrei Nach Liebe Chords & Tabs

Die Aerzte Chords & Tabs

Version: 1 Type: Bass Tab 0 ratings
1 star 2 stars 3 stars 4 stars 5 stars
comments

Schrei Nach Liebe Bass Tab

   
#----------------------------------PLEASE NOTE---------------------------------#
#This file is the author's own work and represents their interpretation of the #
#song. You may only use this file for private study, scholarship, or research. #
#------------------------------------------------------------------------------#

Tabbed by Alexander Wilden (october dot rust at gmx dot de)
Tuning : E A D G || Time Signature: 4/4


Die Ärzte - Schrei nach Liebe

Intro:

|----------------|----------------|----------------|----------------| (4x)
|----------------|----------------|----------------|----------------|
|5-5-5-5-5-5-5-5-|5-5-5-5-5-5-5-5-|1-1-1-1-1-1-1-1-|3-3-3-3-3-3-3-3-|
|----------------|----------------|----------------|----------------|


|----------------|----------------|
|----------------|----------------|
|5-5-5-5-5-5-5-5-|5-5-5-0-3--3--0-|
|----------------|----------------|

Verse:

|----------------|----------------|----------------|----------------| (3x)
|----------------|----------------|----------------|----------------|
|5-5-5-5-5-5-5-5-|5-5-5-5-5-5-5-5-|1-1-1-1-1-1-1-1-|3-3-3-3-3-3-3-3-|
|----------------|----------------|----------------|----------------|

|----------------|----------------|----------------|----------------|
|----------------|----------------|----------------|----------------|
|5-5-5-5-5-5-5-5-|5-5-5-5-5-5-5-3-|\1--------------|3---------------|
|----------------|----------------|----------------|----------------|

Refrain:

|----------------|----------------|----------------|----------------|
|----------------|----------------|----------------|----------------|
|1---------------|3---------------|5---------------|------------3---|
|----------------|----------------|----------------|----------------|

|----------------|----------------|----------------|----------------|
|----------------|----------------|----------------|----------------|
|1---------------|3---------------|----------------|----------------|
|----------------|----------------|3---------------|5---------------|
[ Tab from: http://www.guitartabs.cc/tabs/d/die_aerzte/schrei_nach_liebe_btab.html ]
|----------------|----------------|----------------|----------------|
|----------------|----------------|----------------|----------------|
|1---------------|3---------------|5---------------|------------3---|
|----------------|----------------|----------------|----------------|

|----------------|----------------|----------------|----------------|
|----------------|----------------|----------------|----------------|
|1-1-1-1-1-1-1-1-|1-1-1-1-1-1-1-1-|0-0-0-0-0-0-0-0-|-0-R------------|
|----------------|----------------|----------------|----------------|

Interlude:

|----------------|----------------|----------------|----------------| (2x)
|----------------|----------------|----------------|----------------|
|5-5-5-5-5-5-5-5-|5-5-5-5-5-5-5-5-|1-1-1-1-1-1-1-1-|3-3-3-3-3-3-3-3-|
|----------------|----------------|----------------|----------------|

Guitar-Solo:

|----------------|----------------|----------------|----------------|
|----------------|----------------|----------------|----------------|
|5-5-5-5-5-5-5-5-|5-5-5-5-5-5-3-3-|1-1-1-1-1-1-1-1-|----------------|
|----------------|----------------|----------------|3-3-3-3-3-3-3-3-|

|----------------|----------------|----------------|----------------|
|----------------|----------------|----------------|----------------|
|5-5-5-5-5-5-5-5-|5-5-5-5-5-5-3-3-|1-1-1-1-1-1-1-1-|3-3-3-3-3-3-3-3-|
|----------------|----------------|----------------|----------------|

Pre-Outro:

|----------------|----------------|----------------|----------------|
|----------------|----------------|----------------|----------------|
|1---------------|3---------------|5---------------|5-5-5-5-5-5-5-5-|
|----------------|----------------|----------------|----------------|

|----------------|----------------|----------------|----------------|
|----------------|----------------|----------------|----------------|
|5-5-5-5-5-5-5-5-|5-5-5-5-5-5-5-5-|5-5-5-5-5-5-5-5-|5-5-5-5-5-5-5-5-|
|----------------|----------------|----------------|----------------|

Outro:

Guitar only


Order:
======

Intro
Verse
Refrain
Interlude
Verse
Refrain
Guitar-Solo
Refrain (no bass, but slide in @ end)
Refrain (play all notes as eighth)
Pre-Outro
Outro
Comments