Die Aerzte - Nichts In Der Welt Chords & Tabs

 

Die Aerzte Chords & Tabs

Version: 1 Type: Tab 0 ratings
1 star 2 stars 3 stars 4 stars 5 stars
comments

Nichts In Der Welt Tab

Song: Nichts in der Welt
Band: Die Aerzte
Album: Geraeusch
Tab By Marc Alesandri

e----------------11-11--------|
B-----------------------14 14-|
G---11--13p(15)---------------|
D-----------------------------|
A-----------------------------|
E-----------------------------|
[ Tab from: http://www.guitartabs.cc/tabs/d/die_aerzte/nichts_in_der_welt_tab.html ]
e---------11-11-------------------|
B-12--11------------14-14---12--11|
G---------------------------------|
D---------------------------------|
A---------------------------------|
E---------------------------------|

e-----------|
B-----------|
G--13--11---|
D-----------|
A-----------|
E-----------|

Repeat the all 2x (Alles 2x Wiederholen)

This is my first Solo i ever wrote down, but Iím sure itís right(Das ist das 
Solo das ich jemals rausschrieb, Ich bin aber sicher das es richtig ist)
Comments