Die Aerzte - Langweilig Chords & Tabs

 

Langweilig Chords & Tabs

Die Aerzte Chords & Tabs

Version: 1 Type: Tab 0 ratings
1 star 2 stars 3 stars 4 stars 5 stars
comments

Langweilig Tab

   
It's my first TAb so please tell me all mistakes because i want to play this song right, too.


    E                g#                           c#
Ich sitze auf meinem Stuhl und ich starre aus dem Fenster
        A                               f#
und ich stell' mir wieder mal die alten Fragen:
             H                                 E                   g#
Wo komm' ich her, wo geh' ich hin, und wieviel Zeit werd' ich noch haben?
c#        H             A          g#                f#
Ich denke nach über die Welt, über das, was wirklich zählt,
           E                H       C-c#-H
ich weiß genau, was mich so quält:
          H                  A                 g#                f#
Ich bin genervt, ich bin frustriert, weil hier einfach nichts passiert,
          E            H                          
weil hier nie etwas passiert.
g#-A                          c#           H                A
Und ich schau' wieder auf die Uhr, Du bist immer noch nicht da,
                    c#              H
keine Ahnung, wo Du bleibst, es ist wahr:


        E      H            c#     g#           A      E
Mir ist langweilig, sterbenslangweilig, so stinklangweilig
     f#         A
ohne Dich, ohne Dich
H       E      H            c#     g#           A      E
Mir ist langweilig, sterbenslangweilig, so stinklangweilig
     f#         A            H      E
ohne Dich, ohne Dich ist mir langweilig

[ Tab from: http://www.guitartabs.cc/tabs/d/die_aerzte/langweilig_tab.html ]
    E-E4-E           g#                          c#-c#-c#
Ich liege auf meinem Bett, und ich starre an die Decke
        A               A/g# Bass   f#-f#7-f#
und ich wünsche Dir die Pest an den Hals:
               H                           E
läßt mich hier sitzen einfach so; aber vielleicht....
                           g#-G#9-g#               c#
...vielleicht kommst Du ja bald.
              H                  A
Kein Bock auf fernsehen, das ist öde,
           g#                f#
Will nicht ficken, das macht müde,
           E                 H                     c#
kann nicht aufsteh'n, bin zu blöde....
               c#       H  A
Ich hab' schon zwölfmal onaniert,
          A       g#        f#
weil hier einfach nichts passiert,
          f#    E       H                          A
weil hier nie etwas passiert.
                          c#
Mir tun jetzt beide Hände weh,
        c#    H          A
Du bist immer noch nicht da,
         A             c#                H
weiß der Teufel, wo Du steckst, eins ist klar:


        E      H            c#     g#           A      E
Mir ist langweilig, sterbenslangweilig, so stinklangweilig
     f#         A       H
ohne Dich, ohne Dich
        E      H            c#     g#           A      E
Mir ist langweilig, sterbenslangweilig, so stinklangweilig
     f#         A            H      E
ohne Dich, ohne Dich ist mir langweilig.
                                    >Solo Git.

   E                H                 c# 
E :----------------|-----------------|---------------------|
B :----------------|-----------------|---------------------|
G :----------------|-----------------|6-----6-6-6-9--6-6-h8|
D :------------6-9-|-----6------9-9-9|---------------------|
A :7---7---7-9-----|-----------------|---------------------|
E :----------------|-----------------|---------------------|
 --lig.


   g#                A                E
E :-----------------|----------------|-------------------|
B :-----------------|----------------|-------------------|
G :-----------------|--------6-------|-------------------|
D :------6-----6-6-6|7---7-----9-7-9-|----9-9------------|
A :-----------------|----------------|--------7-----7-7-7|
E :-----------------|----------------|-------------------|

   f#            A        H           E                H         
E :----------------|-----------------|----7-----7-----|7-----7-----7---|
B :----------------|-----------------|5-------5-----5-|----5-----5---5-|
G :----------------|--6-8-9----8\----|----------------|----------------|
D :----------6-7-9-|-----------------|----------------|----------------|
A :9---9---9-------|-----------------|----------------|----------------|
E :----------------|-----------------|----------------|----------------|

   c#                     g#                A               
E :12-x-11-x-9-----------|-----------------|-------9-----------|
B :------------12---9-h10|9-------------9-9|10---------12---10-|
G :----------------------|-----------------|-------------------|
D :----------------------|-----------------|-------------------|
A :----------------------|-----------------|-------------------|
E :----------------------|-----------------|-------------------|

   E                 f#                A          H            E..      
E :-----------------|---------------------|--9-11-12-----11---|
B :12---------------|-------------9-10-12-|-------------------|
G :-------9-----9---|11---11---11---------|-------------------|
D :-----------------|---------------------|-------------------|
A :-----------------|---------------------|-------------------|
E :-----------------|---------------------|-------------------|
Comments