Die Aerzte - Kopfuber In Die Holle Revolution Chords & Tabs

 

Kopfuber In Die Holle Revolution Chords & Tabs

Die Aerzte Chords & Tabs

Version: 1 Type: Tab 0 ratings
1 star 2 stars 3 stars 4 stars 5 stars
comments

Kopfuber In Die Holle Revolution Tab

   
#----------------------------------PLEASE NOTE---------------------------------#
#This file is the author's own work and represents their interpretation of the #
#song. You may only use this file for private study, scholarship, or research. #
#------------------------------------------------------------------------------#
KOPF?BER IN DIE H?LLE\REVOLUTION
As recorded by Die ?rzte

TABBED BY MARIAN PARTZSCH

ANY QUESTIONS TO LEPAULSTANDARD@WEB.DE

Intro:

Am Fmaj7 G5

Strophe:

Am    G     C                F

Revolution stand auf unsern Fahnen

Am    G     F

Revolution stand uns im Gesicht

Am         G        C               F

Wir ham' erlebt was and're nicht mal ahnen

Am    G             D

Revolution weniger wollten wir nicht

             F

Das ist noch nicht so lange her, doch heute

E

kennst Du mich nicht mehr

                    Am   Em

Wir haben getr?umt

         F         G

Von einer besseren Welt

                    Am   Em

Wir haben sie uns

           F     G

So einfach vorgestellt

            C        G

Wir haben getr?umt

          Am     Em

Es war 'ne lange Nacht

    F                  G            Am

Ich w?nschte wir waer'n niemals aufgewacht

Revolution, wir wollten weg von der Masse

Kopf?ber in die H?lle und zurueck

Heute stehst Du bei Hertie an der Kasse

Da ist keine Sehnsucht mehr in Deinem Blick

Du sagst: man tut halt was man kann

und Dir geht's gut, Du kotzt mich an!

Wir ha'm getr?umt...

    F                  G            D

Ich w?nschte wir w?r'n niemals aufgewacht

    F                  G            Am

Ich w?nschte wir w?r'n niemals aufgewacht

TABS:

INTRO:

  Gtr I
  W          H    S S S S S S S S   S E. +Q   +S  S S S S S S S
|----------------------|------------------------------|
|----------------------|------------------------------|
|----------------------|------------------------------|
|--------3-3-3-3-2-0---|------------------------------|
|--------------------3-|-5-7--(7)--(7)-8-8-8-8-7-5-3--|
|----------------------|------------------------------|


  S S E +Q   +S  S S S S S S S   S E. +Q   +S  S S S S S S S
|------------------------------|-----------------------------|
|------------------------------|-----------------------------|
|------------------------------|-----------------------------|
|----------------3-3-3-3-2-0---|-----------------------------|
|-5-7------------------------3-|-5-7--(7)--(7)-8-8-8-8-7-5-3-|
|-----5-(5)--(5)---------------|-----------------------------|


  S S E +Q   +S  S S S S S S S
|------------------------------|
|------------------------------|
|------------------------------|
|----------------3-3-3-3-2-0---|
|-5-7------------------------3-|
|-----5-(5)--(5)---------------|


  S E. +Q   +S  S S S S S S S   E. S +E  E +S  E. E. S
|-----------------------------|------------------------|
|-----------------------------|------------------------|
|-----------------------------|------------------------|
|-----------------------------|-2----------------------|
|-5-7--(7)--(7)-8-8-8-8-7-5-3-|----3-(3)-5-(5)---------|
|-----------------------------|----------------7--8--5-|

[ Tab from: http://www.guitartabs.cc/tabs/d/die_aerzte/kopfuber_in_die_holle_revolution_tab.html ]
  +E  E +S  E. E. S +E  E
|-------------------------|
|-------------------------|
|-------------------------|
|-------------------------|
|--------------0----------|
|-(5)-7-(7)-3-----1-(1)-0-|


FILL IN:
  H    S S S S S S S S   S E. +Q   +S  S E Q
|----------------------|-------------------------------|
|----------------------|-------------------------------|
|----------------------|-------------------------------|
|--------3-3-3-3-2-0---|-------------------------------|
|--------------------3-|-5-7--(7)--(7)-----------------|
|----------------------|----------------------|--------|


SOLO:
  S S E +Q   +H       H    Q  S S S S   S S S S S S S S S S S S E E
|-------------------|-----------8---8-|-8-7---7-7-5---5-5-3---3-3---|
|-5-6-5-(5)--(5)----|-----------------|---------------------------3-|
|---7---------------|-----------------|-----------------------------|
|-------------------|-----------------|-----------------------------|
|-------------------|-----------------|-----------------------------|
|-------------------|-----------------|-----------------------------|


  S S E +Q   +H       H    S S S S S S S S   S E. +H     S S S S
|-------------------|----------------------|---------------------|
|-5-6-5-(5)--(5)----|----------------------|---------------------|
|---7---------------|----------------------|---------------------|
|-------------------|--------7---7-7-9---7-|-5-7--(7)------------|
|-------------------|----------------------|---------------------|
|-------------------|----------------------|---------------5---7-|


  Q.   S S E. S +S  E.
|----------------------|
|----------------------|
|----------------------|
|----------------------|
|----------------------|
|-8----7-8-7--3-(3)-0--|


END:
  H    S S S S S S S S   S E. +Q   +Q   +S  S E
|------5-3-------------|-------------------------*|
|--------6-5-3---------|-------------------------*|
|------------5-4-2-----|-------------------------*|
|----------------5-3-2-|-------------------------*|
|--------------------5-|-3-0--(0)--(0)--(0)------*|
|----------------------|-------------------------*|

--------------------------------------------------------------------------------


Duration Legend
---------------
W - whole; H - half; Q - quarter; E - 8th; S - 16th; T - 32nd; X - 64th; a - acciaccatura
+ - note tied to previous; . - note dotted; .. - note double dotted
Uncapitalized letters represent notes that are staccato (1/2 duration)
Irregular groupings are notated above the duration line
Duration letters will always appear directly above the note/fret number it represents the
duration for.  Duration letters with no fret number below them represent rests.  Multi-
bar rests are notated in the form Wxn, where n is the number of bars to rest for.  Low
melody durations appear below the staff

Tablature Legend
----------------
 h   - hammer-on
 p   - pull-off
 b   - bend
 pb  - pre-bend
 r   - bend release (if no number after the r, then release immediately)
 /\  - slide into or out of (from/to "nowhere")
 s   - legato slide
 S   - shift slide
 - natural harmonic
[n]  - artificial harmonic
n(n) - tapped harmonic
 ~   - vibrato
 tr  - trill
 T   - tap
 TP  - trem. picking
 PM  - palm muting
\n/  - tremolo bar dip; n = amount to dip
 \n  - tremolo bar down
 n/  - tremolo bar up
/n\  - tremolo bar inverted dip
 =   - hold bend; also acts as connecting device for hammers/pulls
 <> - volume swell (louder/softer)
 x   - on rhythm slash represents muted slash
 o   - on rhythm slash represents single note slash

Misc Legend
-----------
 |  - bar
||  - double bar
||o - repeat start
o|| - repeat end
*|  - double bar (ending)
 :  - bar (freetime)
 $  - Segno
 &  - Coda
Tempo markers -  = BPM(8/16=s8/s16), where s8 = swing 8ths, s16 = swing 16ths


--------------------------------------------------------------------------------
Comments