Die Aerzte - Ist Das Alles Chords & Tabs

 

Die Aerzte Chords & Tabs

Version: 1 Type: Tab 0 ratings
1 star 2 stars 3 stars 4 stars 5 stars
comments

Ist Das Alles Tab

   
Tune down 1/2 step
like Farins Guitar

Intro:

    D              C            G
1:-----------------------------------------------|
2:--------------------------------------8--7-----|
3:--7-----5--7--5--5---5--7--5-------7--------7--|
4:--7--------------5------------5----------------|
5:--5--------------3------------5----------------|
6:------------------------------3----------------|

   D              C            G    D
1:--------------------------------------------------------|
2:--------------------------------------------------------|
3:--7-----5--7--5--5---5--7--5------7---------------------|
4:--7--------------5------------5---7---------------------|
5:--5--------------3------------5---5---------------------|
6:------------------------------3-------------------------|


1.Strophe: 
D                             C
  Ich war hier in unser Gegend alles and're als beliebt
  G                                 D                        Fill
Besonders hasste mich ein Schläger, wie es ihn an jeder Ecke gibt.

Fill:
1:---------------|
2:---------------|
3:---------------|
4:-7/5/7/5/7/5/7-|
5:-5/3/5/3/5/3/5-|
6:---------------|


D                              C
  Ein Duell war unausweichlich, meine Angst entsprechend groß,
    G                        D
und ohne Anflug einer Chance ging ich auf ihn los.
A                               G                   D
  Als er mit mir fertig war, da sah ich ihn fragend an.


Refrain:
D
Ist das alles?
C
Ist das alles?
G              D    C
Ist das alles?

D
Ist das alles?
C
Ist das alles?
G               D    C
Ist das alles?


Interlude:
siehe Intro!
D C G
D C G D

[ Tab from: http://www.guitartabs.cc/tabs/d/die_aerzte/ist_das_alles_tab.html ]
2.Strophe:
D                             C
  Dann bekam ich eine Freundin und ich gab mich seriös,
     G                       D                   Fill
doch Etwas unter ihrer Bluse machte mich nervös.
D                                        C
  Ich wollte, doch ich hatte keine Ahnung und kein Vertrauen in mein Glück,
   G                                      D
da ließ sie meinen Drachen steigen, jetzt gab es kein zurück.
A                                G                   D   C
  Als sie mit mir fertig war, da sah ich sie fragend an.


Refrain:
D
Ist das alles? (Ist das alles?)
C
Ist das alles? (Ist das alles?)
G                              D    C
Ist das alles? (Ist das alles?)

D
Ist das alles? (Ist das alles?)
C
Ist das alles? (Ist das alles?)
G                              D    C
Ist das alles? (Ist das alles?)


Bridge:
    D
Ich dachte ich muß sterben als sie mich verließ.
    C
Ich dachte ich muß sterben als mein Vater mich verstieß.
    G
Und als mein Chef mich rauswarf, weil ich faul war, wie es hieß.
D                                              A
Doch zum sterben ging es mir noch nicht mies genug.


Refrain:
    D              C
Oh, Ist das alles?
G              D    C
Ist das alles?

D
Ist das alles?
C
Ist das alles?
G               D    C
Ist das alles?

D
Ist das alles? (Ist das alles?)
C
Ist das alles? (Ist das alles?)
G                              D    C
Ist das alles? (Ist das alles?)

D
Ist das alles? (Ist das alles?)
C
Ist das alles? (Ist das alles?)
G                              D    C
Ist das alles? (Ist das alles?)
Comments