Die Aerzte - Ich Ess Blumen Acoustic Chords & Tabs

 

Ich Ess Blumen Acoustic Chords & Tabs

Die Aerzte Chords & Tabs

Version: 1 Type: Bass Tab 0 ratings
1 star 2 stars 3 stars 4 stars 5 stars
comments

Ich Ess Blumen Acoustic Bass Tab

Tabbed by tottness

Song: Ich ess Blumen (unplugged)
Album: Rock’n Roll Realschule
Tuning: Standard


Main Riff

G|--------------------------------------------------------------------------|
D|---------1---------------3--------------5---------------------------------|
A|-----11-------112233---------334455----------556677---9-10-(11------------| if u want)
E|--------------------------------------------------------------------------|

Or

A|----------5-----------7----------9--------------------------------------|
E|-----55-------556677------778899-----99101011111----13-14-(15-----------| if u want)

G|------------------------------------------------------------------------|
D|---------1------------3---------------5---------------------------------|
A|-----11-------112233---------334455-----------556677---99-1010-1111-----|
E|------------------------------------------------------------------------|

Or

A|---------5-----------7-----------9----------------------------------|
E|-----55-------556677------778899-----9910101111----1313-1414-1515---|

Play this alternately / Spielt dies im Wechsel

To                                bis
’’…mein Gewissen hat mich dazu gezwungen“

Then                             dann

Pre - Chorus
[ Tab from: http://www.guitartabs.cc/tabs/d/die_aerzte/ich_ess_blumen_acoustic_btab.html ]
G|-----------------------------------------------------------|
D|-----------------------------------------------------------|
A|-----------------------------------------------------------|
E|-----3-3--2-0----5-5--4-0----3-4-5-6---7-7--666-5-4--------|

Play this to… / Spielt dies bis…

’’…Hallejuliah…“

Then                             dann

Chorus

G|-------------------------------------------------------------------------|
D|-------------------------------------------------------------------------|
A|------------------1~--------------------------------1~-------------------|
E|-----03~-----1~-------1~------3~---------3~----1~--------1~---3~---------|


’’…Nein…“

Play Main Riff / Main Riff wieder spielen

To                     bis

’’… in Soßen…’’


Play Pre - Chorus to…. / Spielt den Pre Chorus bis…

’’…Hallejuliah…“

Then Chorus again to… / dann der Chorus wieder bis…
the first…                        zum ersten
’’ … so stinken…“

Then Main Riff to the Chorus vocals / Dann Main Riff zum Chorus

The End / Ende

’’Ich ess Blumen…’’              ’’Ich ess Blumen…’’

G|---------------------------------------------------------|
D|---------------------------------------------------------|
A|-------------11------------------------11----------------|
E|-----33--11-------1~---------33--11---------1~-----------|


Last Riff

G|-------------------|
D|-------------------|
A|-------------1-----|             or
E|-----33-2-1--------|

G|-------------------|
D|-------------------|
A|-------------1-----|
E|-----33-11---------|


Thats it… ok have fun                   ~ - let ring

Greetz
 tottness
Comments