Die Aerzte - Ein Sommer Nur Fur Mich Chords & Tabs

 

Ein Sommer Nur Fur Mich Chords & Tabs

Die Aerzte Chords & Tabs

Version: 1 Type: Tab 0 ratings
1 star 2 stars 3 stars 4 stars 5 stars
comments

Ein Sommer Nur Fur Mich Tab

   
Ein Sommer nur für mich
=======================
(M/T: Urlaub)


Anm.:Akkorde
   D5  G   A   D  D7/4  D4  e   h
1:---|-3-|-5-|-5-|--8-|-5-|-7-|-2-|
2:---|-3-|-5-|-7-|--8-|-8-|-8-|-3-|
3:---|-4-|-6-|-7-|--7-|-7-|-9-|-4-|
4:-7-|-5-|-7-|-7-|--7-|-7-|-9-|-4-|
5:-5-|-5-|-7-|-5-|--5-|-5-|-7-|-2-|
6:---|-3-|-5-|---|----|---|---|---|



1.Strophe:
D5
Endlich kommt der Sommer wieder, wir freuen uns, wir knien nieder
G         A              D      D7/4
Die Vögel singen auf den Bäumen
D5
Mädchen tragen kurze Röcke, das ist schön für alte Säcke
G          A                 D       D4 D
Die können dann ein bisschen träumen

     e
Doch immer, wenn der Sommer kommt
  G
beschäftigt mich seit Jahren schon
    e                       D    D4 D
ein eher philosophisches Problem

    e
Die Frage ist zu schwer für mich
    G
ich stelle sie jetz öffentlich
     e                               A     Fill1
Doch Vorsicht ! sie ist ziemlich unbequem:

Fill1:
1:---------------------|
2:-10-----10----10-----|
3:-12b14--12b14-12b14--|
  
Refrain:
D           h              G                 A
Scheint die Sonne auch für Nazis? ich könnts nicht verstehen
D      h               G               A
Dürfen Faschos auch verreisen? das wär ungerecht
D         h           G               A
Können Rassisten etwa auch den blauen Himmel sehen?
D           h              G
Scheint die Sonne auch für Nazis?
             e                   G       A
- wenns nach mir geht, tut sie`s nicht:
                            D
Ich will nen Sommer nur für mich
G        A              D      G  A  D
Will nen Sommer nur für mich

2te Git. ab "nicht"-G-Akkord:
    G                                A
1:--------------------------------------|
2:--------------------------------------|
3:--------------------------------------|
4:--------------------------------------|
5:-----------------------------4--5--7--|
6:--3-3-3-3--5-5-5-5--7-7-7-7-----------|
   D                              G             A
1:-----------------------------|-----------------------------|
2:-----------------------------|-----------------------------|
3:-----------------------------|-----------------------------|
4:----------------5--4---------|----------------5--4---------|
5:--5-5-5-5-5-5-5-------5--7--5|--5-5-5-5-5-5-5-------5--7--5|
6:-----------------------------|-----------------------------|
    D                             G             A             D
1:-----------------------------|--------------------------------|
2:-----------------------------|--------------------------------|
3:-----------------------------|--------------------------------|
4:----------------5--4---------|----------------5--4------------|
5:--5-5-5-5-5-5-5-------5--7--5|--5-5-5-5-5-5-5-------5--7--5-5-|
6:-----------------------------|--------------------------------|


2.Strophe:
D
Alle wollen ins Schwimmbad gehen, barfuß auf der Wiese stehen
G         A           D      D7/4
mit einem Fuß in Hundehaufen
D
Jedes Jahr ist es das gleiche: überall entblößte Bäuche.
G                A              D      D4 D
Mein Schatz, ich geh jetzt Eise kaufen

    e
Und während ich die esse
        G
seh ich so ne Nazifresse
        e                          D      D4 D
und ich wünsche mir, er würde implodieren

  e
Jedoch er tut mir leider nicht
    G
mal den Gefallen und sein Gesicht
       e                           A       Fill1
bringt mich dann wieder zum Philosophieren

[ Tab from: http://www.guitartabs.cc/tabs/d/die_aerzte/ein_sommer_nur_fur_mich_tab.html ]
Refrain:
D           h              G                 A
Scheint die Sonne auch für Nazis? Dann kämen mir die Tränen!
D      h               G               A
Dürfen Faschos auch verreisen? das wär ungerecht
D         h           G               A
Können Rassisten etwa auch den blauen Himmel sehen?
D           h              G
Scheint die Sonne auch für Nazis?
             e                   G       A
- wenns nach mir geht, tut sie`s nicht:
                            D
Ich will nen Sommer nur für mich
G        A              D
Will nen Sommer nur für mich
G            A              D                G     A
Ich will nen Sommer nur für   miiiiiii-hi-hi-hi-hi-hich
        D                G     A
Nur für   miiiiiii-hi-hi-hi-hi-hich
        D
Nur für mich
G            A              D
Ich will nen Sommer nur für mich
G            A              G
Ich will nen Sommer nur für mich


2te Git. ab "nicht"-G-Akkord:
    G                                A
1:--------------------------------------|
2:--------------------------------------|
3:--------------------------------------|
4:--------------------------------------|
5:-----------------------------4--5--7--|
6:--3-3-3-3--5-5-5-5--7-7-7-7-----------|
   D                              G             A
1:-----------------------------|-----------------------------|
2:-----------------------------|-----------------------------|
3:-----------------------------|-----------------------------|
4:----------------5--4---------|----------------5--4---------|
5:--5-5-5-5-5-5-5-------5--7--5|--5-5-5-5-5-5-5-------5--7--5|
6:-----------------------------|-----------------------------|
    D                             G             A
1:-----------------------------|---------------------------|
2:-----------------------------|---------------------------|
3:-----------------------------|---------------------------|
4:----------------5--4---------|----------------5--4-------|
5:--5-5-5-5-5-5-5-------5--7--5|--5-5-5-5-5-5-5-------5--7-|
6:-----------------------------|---------------------------|
   D
1:-10-----10-----10-----|10----10----10----|
2:-10-----10-----10-----|10----10----10----|
3:-12b14--12b14--12b14--|12b14-12b14-12b14-|
4:----------------------|------------------|
5:----------------------|------------------|
6:----------------------|------------------|
   G                     A
1:-10-----10-----10-----|10----10----10----|
2:-10-----10-----10-----|10----10----10----|
3:-12b14--12b14--12b14--|12b14-12b14-12b14-|
4:----------------------|------------------|
5:----------------------|------------------|
6:----------------------|------------------|
   D(hier bin ich unsicher)
1:---13^10^8^10--13^10^8^10--13^10^8^10--13^10^8^10--|
2:---------------------------------------------------|
3:---------------------------------------------------|
4:---------------------------------------------------|
5:---------------------------------------------------|
6:---------------------------------------------------|
   G             A
1:--------------------------------------|
2:-12-----12-----12-----12--------------|
3:-12b14--12b14--12b14--12b14r12-10-----|
4:----------------------------------12--|
5:--------------------------------------|
6:--------------------------------------|
    D                                G             A
1:----------------------------------------------------------------|
2:-----------------------12-------------12------------------------|
3:----------10-----------12------10-----12-----10-----12----------|
4:--12--12-----12--10-12-12---12-12--12-12--12-12--12-12--10--12--|
5:----------------------------------------------------------------|
6:----------------------------------------------------------------|
   D                            G                  A                      G
1:-10-----12-----14-----15------17----17----17-----17----17----17---///-|
2:-13b15--15b17--17b19--18b20---19b21-19b21-19b21--19b21-19b21-19b21///-|
3:----------------------------------------------------------------------|
4:----------------------------------------------------------------------|
5:----------------------------------------------------------------------|
6:----------------------------------------------------------------------|
Comments