Die Aerzte - Die Traurige Ballade Von Susi Spakowski Chords & Tabs

 

Die Traurige Ballade Von Susi Spakowski Chords & Tabs

Die Aerzte Chords & Tabs

Version: 1 Type: Tab 0 ratings
1 star 2 stars 3 stars 4 stars 5 stars
comments

Die Traurige Ballade Von Susi Spakowski Tab

   
#----------------------------------PLEASE NOTE---------------------------------#
#This file is the author's own work and represents their interpretation of the #
#song. You may only use this file for private study, scholarship, or research. #
#------------------------------------------------------------------------------#
DIE TRAURIGE BALLADE VON SUSI SPAKOWSKI
DIE ?RZTE

TABBED BY MARIAN PARTZSCH
ANY QUESTIONS TO LEPAULSTANDARD@WEB.

Intro: H - G - E - F# -

H                                                g#
Susi war f?rn M?dchen wirklich nich sch?n, darum haben auch alle immer
                  E                              F#                   H
weggesehn & jetzt ist es zu sp?t, jetzt kann man nichts mehr f?r Susi tun,
   F#           E                              F#                  H
uauauh, & jetzt ist es zu sp?t, jetzt kann man nichts mehr f?r sie tun.

F?r die Jungs in der Schule war sie der letzte Dreck, bei manchen allerdings
auch Mittel zum Zweck & f?r ein bi?chen Z?rtlichkeit lie? Susi alles zu,
uauauh, und f?r ein bi?chen ..

G                     H        F#                  H   G
Ihre Mutter war schon lange tot & der Vater nur im Suff & nachts nahm Papi
         H                 E        F#      H             E        F#  H
sich die Susi vor, das war billiger als der Puff, das war billiger...

Susi suchte Hilfe bei - den Lehrern und der Polizei, aber niemand hilft dir,
wenn du der Abschaum bist, uauauh, wirklich niemand hilft dir, wenn du wie Susi
bist.

& immer gr??er wurde der Schmerz - da fa?te Susi sich ein Herz & so kam es so,
wie es gekommen ist, uauauh, und so kam es...

Was Susi abends dann mit Vati tat nennt man gemeinhin Kastration, z?ndete ihn &
dann die Schule an & st?rzte sich vom Balkon, uauauh, und st?rzte...

Wer glaubt, da? sie jetzt in Frieden ruht, der kennt die Bibel nich sehr gut,
denn f?r Mord, da gibts bei Christen kein Pardon, uauauh, & in der
E          G      F#       H
H?lle wartete der Vati schon.

TAB:
INTRO:
  E E E E E E E E   E E E E +Q.   E   E E E E E E E E
|-----------------|-----------------|-----------------|
|-----------------|-----------------|-----------------|
|-----------------|-----------------|-----------------|
|-4-5-5-5-5-4-4-4-|-2-4-4-4-(4)-----|-4-5-5-5-5-4-4-4-|
|-----------------|-----------------|-----------------|
|-----------------|-----------------|-----------------|


  E E E E +Q.   E   Q.   E +H       Q.   E +Q   Q    W
|-----------------|---------------|----------------|------|
|-----------------|---------------|----------------|------|
|-----------------|---------------|----------------|------|
|-2-4-4-4-(4)-----|-4----2-(2)----|-2----0-(0)-----|------|
|-----------------|---------------|-------------4--|-2----|
|-----------------|---------------|----------------|------|


  SOMEWHERE IN THE MIDDLE OF THE SONG:
  E E E E E E E E   E E E E +Q.   E
|-----------------|------------------|
|-----------------|------------------|
|-----------------|------------------|
|-4-5-5-5-5-4-4-4-|-2-4-4-4-(4)------|
|-----------------|------------------|
|-----------------|------------------|

[ Tab from: http://www.guitartabs.cc/tabs/d/die_aerzte/die_traurige_ballade_von_susi_spakowski_tab.html ]
  E E E E E E E E   E E E E +Q   E E   W          +W
|-----------------|------------------|----------|--------|
|-----------------|------------------|----------|--------|
|-----------------|------------------|----------|--------|
|-4-5-5-5-5-4-4-4-|-2-4-4-4-(4)--2-1-|----------|--------|
|-----------------|------------------|-2--------|-(2)----|
|-----------------|------------------|----------|--------|


  OUTRO:
  E E E E E E E E   E E E E +Q.   E   E E E E E E E E   E E E E +Q.   E
|-----------------|-----------------|-----------------|-----------------|
|-----------------|-----------------|-----------------|-----------------|
|-----------------|-----------------|-----------------|-----------------|
|-4-5-5-5-5-4-4-4-|-2-4-4-4-(4)-----|-4-5-5-5-5-4-4-4-|-2-4-4-4-(4)-----|
|-----------------|-----------------|-----------------|-----------------|
|-----------------|-----------------|-----------------|-----------------|


  E E E E E E E E   E E E E E E E E   E E E E E E E E   E E E E +Q.   E
|-----------------|-----------------|-----------------|-----------------|
|-----------------|-----------2-2---|-----------------|-----------------|
|-----------------|---3-3-4-4-----4-|-----------------|-----------------|
|-4-5-5-5-5-4-4-4-|-4---------------|-4-5-5-5-5-4-4-4-|-2-4-4-4-(4)-----|
|-----------------|-----------------|-----------------|-----------------|
|-----------------|-----------------|-----------------|-----------------|

  E E E E E E E E   E E E E +Q.   E   Q  E E +E  E E E   Q  Q  E E E E   W
|-----------------|-----------------|------------------|---------------|---*|
|-----------------|-----------------|------------------|-2-----5-4-5-4-|---*|
|-----------------|-----------------|-4----4-(4)---4-4-|---------------|-4-*|
|-4-5-5-5-5-4-4-4-|-2-4-4-4-(4)-----|----4-------4-----|----4----------|---*|
|-----------------|-----------------|------------------|---------------|---*|
|-----------------|-----------------|------------------|---------------|---*|


Duration Legend
---------------
W - whole; H - half; Q - quarter; E - 8th; S - 16th; T - 32nd; X - 64th; a - acciaccatura
+ - note tied to previous; . - note dotted; .. - note double dotted
Uncapitalized letters represent notes that are staccato (1/2 duration)
Irregular groupings are notated above the duration line
Duration letters will always appear directly above the note/fret number it represents the
duration for.  Duration letters with no fret number below them represent rests.  Multi-
bar rests are notated in the form Wxn, where n is the number of bars to rest for.  Low
melody durations appear below the staff

Tablature Legend
----------------
 h   - hammer-on
 p   - pull-off
 b   - bend
 pb  - pre-bend
 r   - bend release (if no number after the r, then release immediately)
 /\  - slide into or out of (from/to "nowhere")
 s   - legato slide
 S   - shift slide
 - natural harmonic
[n]  - artificial harmonic
n(n) - tapped harmonic
 ~   - vibrato
 tr  - trill
 T   - tap
 TP  - trem. picking
 PM  - palm muting
\n/  - tremolo bar dip; n = amount to dip
 \n  - tremolo bar down
 n/  - tremolo bar up
/n\  - tremolo bar inverted dip
 =   - hold bend; also acts as connecting device for hammers/pulls
 <> - volume swell (louder/softer)
 x   - on rhythm slash represents muted slash
 o   - on rhythm slash represents single note slash

Misc Legend
-----------
 |  - bar
||  - double bar
||o - repeat start
o|| - repeat end
*|  - double bar (ending)
 :  - bar (freetime)
 $  - Segno
 &  - Coda
Tempo markers -  = BPM(8/16=s8/s16), where s8 = swing 8ths, s16 = swing 16ths
Comments