Dido - White Flag Chords & Tabs

 

White Flag Chords & Tabs

Dido Chords & Tabs

Version: 1 Type: Bass Tab 0 ratings
1 star 2 stars 3 stars 4 stars 5 stars
comments

White Flag Bass Tab

Standard Tuning

Intro

G ---------|-----------|-----------|------------|
D ---------|-----------|-----------|------------|
A ---------|-----------|-----------|------------|
E -1-1---1-|-1-1-1---1-|-5-5-5---5-|-5-5--5-5-5-|

Verse

G ---------|---------|---------|-----------|
D ---------|---------|---------|-----------|   x2
A -5-5---5-|-5-5---5-|---------|-----------|
E ---------|---------|-5-5---5-|-5-5---5-5-|

G ---------|---------|---------|-----------|
D ---------|---------|---------|-----------|
A -3-3---3-|-3-3---3-|---------|-----------|
E ---------|---------|-3-3---3-|-5-5---5-5-|

Chorus

G ---------|---------|---------|-----------|
D ---------|---------|---------|-----------|
A -1-1---1-|---------|---------|-5-5---5-5-|
E ---------|-1-1---1-|-3-3---3-|-----------|

G ---------|---------|---------|-----------|
D ---------|---------|---------|-----------|
A -1-1---1-|---------|-3-3---3-|-----------|
E ---------|-1-1---1-|---------|-3-3---3-3-|
[ Tab from: http://www.guitartabs.cc/tabs/d/dido/white_flag_btab.html ]
G ---------|---------|---------|-----------|
D ---------|---------|---------|-----------|   x2
A -5-5---5-|-5-5---5-|---------|-----------|
E ---------|---------|-5-5---5-|-5-5---5-5-|

G ---------|---------|---------|-----------|
D ---------|---------|---------|-----------|
A -3-3---3-|-3-3---3-|---------|-----------|
E ---------|---------|-3-3---3-|-5-5---5-5-|

G ---------|---------|---------|-----------|
D ---------|---------|---------|-----------|
A -1-1---1-|---------|---------|-5-5---5-5-|
E ---------|-1-1---1-|-3-3---3-|-----------|

G ---------|---------|---------|-----------|
D ---------|---------|---------|-----------|
A -1-1---1-|---------|-3-3---3-|-----------|
E ---------|-1-1---1-|---------|-3-3---3-3-|

Bridge

G ---------|---------|---------|-----------|
D ---------|---------|---------|-----------|
A ---------|---------|---------|-----------|
E -1-1---1-|-1-1---1-|-5-5---5-|-5-5---5-5-|

G ---------|---------|---------|-----------|
D ---------|---------|---------|-----------|
A ---------|---------|-3-3---3-|-3-3---3-3-|
E -3-3---3-|-3-3---3-|---------|-----------|

Chorus x2

Thanks, please rate it after you learn it.
Comments