Dido - Thank You Chords & Tabs

 

Thank You Chords & Tabs

Dido Chords & Tabs

Version: 6 Type: Chords 0 ratings
1 star 2 stars 3 stars 4 stars 5 stars
comments

Thank You Chords

--0-0-0-0-0-0----0-0-0-0-0-0----3-3-3-3-3-3----3-3-x-x------
--3-3-3-3-3-3----0-0-0-0-0-0----2-2-2-2-2-2----0-0-x-x------
--0-0-0-0-0-0----0-0-0-0-0-0----3-3-3-3-3-3----0-0-x-x------
--2-2-2-2-2-2----2-2-2-2-2-2----0-0-0-0-0-0----0-0-x-x------
--2-2-2-2-2-2----3-3-3-3-3-3----x-x-x-x-x-x----2-2-x-x------
--0-0-0-0-0-0----0-0-0-0-0-0----x-x-x-x-x-x----3-3-3-3------

--0-0-0-0-0-0----0-0-0-0-0-0----3-3-3-3-3-3----3-3-x-x------
--3-3-3-3-3-3----0-0-0-0-0-0----2-2-2-2-2-2----0-0-x-x------
--0-0-0-0-0-0----0-0-0-0-0-0----3-3-3-3-3-3----0-0-x-x------
--2-2-2-2-2-2----2-2-2-2-2-2----0-0-0-0-0-0----0-0-x-x------
--2-2-2-2-2-2----3-3-3-3-3-3----x-x-x-x-x-x----2-2-x-x------
--0-0-0-0-0-0----0-0-0-0-0-0----x-x-x-x-x-x----3-3-3-3------

[ Tab from: http://www.guitartabs.cc/tabs/d/dido/thank_you_crd_ver_6.html ]
Comments