Dido - Hunter Chords & Tabs

 

Hunter Chords & Tabs

Dido Chords & Tabs

Version: 2 Type: Tab 0 ratings
1 star 2 stars 3 stars 4 stars 5 stars
comments

Hunter Tab

   
Hunter-Dido

(Not sure Exact chord names)
Bm-x24232+(x22254)
G-3x0033
F#-244222
E-022xxx

Intro(just switch between the two chords at verses switch)(same for 2nd verse)
\---2-------  \--4--------
\---3-------  \--5--------
\---2-------  \--2--------
\---4-------  \--2--------   1st and 2nd verse chords
\---2-------  \-(2)-------
\---x-------  \--x--------
[ Tab from: http://www.guitartabs.cc/tabs/d/dido/hunter_tab_ver_2.html ]
Pre chorus                                             (into chorus)
\---2-----3-----2-------- \-------2-----3-----2-----  --3-------
\---3-----3-----2-------- \-------3-----3-----2-----  --3-------
\---2-----0-----2-------- \-------2-----0-----2-----  --0-------
\---4-----0-----4-------- \-------4-----0-----4-----  --0-------
\---2-----x-----4-------- \-------2-----x-----4-----  --x-------
\---x-----3-----2-------- \-------x-----3-----2-----  --3-------

Chorus(Leave it to you to get the exact strumming pattern)      (fade to 2ndverse)
\---2----3-------------3----- \-----2-----3--------------3-------2--(2)------
\---3----3-------------3----- \-----3-----3--------------3-------3--(3)------
\---2----0-------------0----- \-----2-----0--------------0-------2--(2)------
\---4----0----2---2----0----- \-----4-----0----2---2-----0-------4--(4)------
\---2----x----2---2----x----- \-----2-----x----2---2-----x-------2--(2)------
\---x----3----0---0----3----- \-----x-----3----0---0-----3-------x-----------

The little interlude part...(G chord ends it; back into the song)
-----------------   --3
-----------------   --3
-----------------   --0
-----------------   --0
--2----0---------   --x  (dtune_99@yahoo.com for any other requests)
------------0----   --3
Comments