Dicta License - Sugat Chords & Tabs

 

Sugat Chords & Tabs

Dicta License Chords & Tabs

Version: 1 Type: Tab

Sugat Tab

mga sugat
tabbed by : joshua andres of black rose
first time ko palang magtab ng isang kanta....so sana naman magustuhan niyo....:D

intro + verse
e|--------------------------|
b|--------7-----------------|  
g|--------9-----------------| x30
d|-------10-----------------|
a|--------------------------|
e|--------------------------|

[ Tab from: http://www.guitartabs.cc/tabs/d/dicta_license/sugat_tab.html ]
chorus
e|---------------------------------------------|
b|---------------------------------------------|
g|---------------------------------------------|
d|-------------7--5--4-----------567-----------|\
a|-----7--4s5-----------6--3--4----------------| \
e|---------------------------------------------|  \
                                                   \
e|---------------------------------------------|   / x2
b|---------------------------------------------|  /
g|---------------------------------------------| /
d|-------------7--5--4-------------------------|/
a|-----7--4s5-----------6--4--3-----2----------|
e|-------------------------------4-------------|

repeat verse... x26
then chorus again...
then verse... x16

tapos
e|--------------------------|
b|--------7>>>>>>>----------|  
g|--------9>>>>>>>----------|
d|-------10>>>>>>>----------|
a|--------------------------|
e|--------------------------|

e|----------------------------|
b|----------------------------|
g|-----8--10--6--4------------|  x2
d|-----8--10--6--4------------|
a|-----6---8--4--2------------|
e|----------------------------|

e|----------------------------|
b|----------------------------|
g|-----8--10--6--4------------|  x2
d|-----x---x--x--x------------|
a|-----6---8--4--2------------|
e|----------------------------|

e|----------------------------|
b|----------------------------|
g|----------------------------|
d|----------------------------|
a|-----8--8s10p6--10s11-------|
e|----------------------------|

END...

s = slide
> = continue
p = pull off