Dicta License - Complex Chords & Tabs

 

Complex Chords & Tabs

Dicta License Chords & Tabs

Version: 1 Type: Bass Tab

Complex Bass Tab

   
Song: Complex
Artist: Dicta License
Tabbed by: Gian Evasco (14 Yrs Old -_-")
Tuning: Standard Tuning (From Top String - E A D G)

Legend:
T- Slap/Thumb
P- Pop
s- Slide
h- hammer
p- pull
x- mute (palm mute)
/- Increasing Slide (pataas ung pag slide)
- Descending Slide (pababa ung pag slide)

      Intro: (Repeat 3x)
G|----------------------------|
D|----------------------------|
A|--222--55-------------------|
E|-----------033333333--------|
              ^8 Times Plucking ung 3rd Fret of E String

Last Part of Intro:
G|------------------------|
D|------------------------|
A|--222--55---------------|
E|----------031-(Pause----|
                  ^Pause for around 2seconds or 6counts

Verse #1: on the 7th Count play this riff
G|--------------------------|
D|--------------------------|
A|-2-2h4-4/5----------------|
E|--2--------3--33-x-3--3---|

G|--------------------------|
D|-------------------5h7-5--|
A|-2-2h4-4/5-------5-------7|
E|--2--------3--33----------|

G|--------------------------|
D|--------------------------|
A|-2-2h4-4/5----------------|
E|--2--------3--33-x-3--3---|

G|--------------------------|
D|-------------------5h7-5--|
A|-2-2h4-4/5-------5-------7|
E|--2--------3--33----------|

     Then Repeat this 3x
G|--------------------------|
D|--------------------------|
A|-2-2h4-4/5----------------|
E|--2--------3--33-x-3--3---|

       Then do this:
G|----------------------------------|
D|----------------------------------|
A|-2-2h4-4/5------------------------|
E|--2--------3--33-x-3--33-0-3-0-3h5|

                CHORUS #1:
G|--------------------------------------|
D|--------------------------------------| Repeat 'Chorus #1' 4x
A|-2-2/5--------------------------------|
E|--2----03--33-x-3--x3--33-x-3-33x3x3-0|

    Bass Riff (Repeat 3x)
G|----------------------------|
D|----------------------------|
A|--222--55-------------------|
E|-----------033333333--------|
              ^8 Times Plucking ung 3rd Fret of E String

Last Part of Bass Riff:
G|------------------------|
D|------------------------|
A|--222--55---------------|
E|----------031-(Pause----|
                  ^Pause for around 2seconds or 6counts

        Verse #2:
G|--------------------------|
D|--------------------------|
A|-2-2h4-4/5----------------|
E|--2--------3--33-x-3--3---|

G|--------------------------|
D|-------------------5h7-5--|
A|-2-2h4-4/5-------5-------7|
E|--2--------3--33----------|

G|--------------------------|
D|--------------------------|
A|-2-2h4-4/5----------------|
E|--2--------3--33-x-3--3---|

G|--------------------------|
D|-------------------5h7-5--|
A|-2-2h4-4/5-------5-------7|
E|--2--------3--33----------|

     Then Repeat this 3x
G|--------------------------|
D|--------------------------|
A|-2-2h4-4/5----------------|
E|--2--------3--33-x-3--3---|

            Then do this:
G|----------------------------------|
D|----------------------------------|
A|-2-2h4-4/5------------------------|
E|--2--------3--33-x-3--33-0-3-0-3h5|
[ Tab from: http://www.guitartabs.cc/tabs/d/dicta_license/complex_btab.html ]
              CHORUS #2:
G|--------------------------------------|
D|--------------------------------------|
A|-2-2/5--------------------------------|
E|--2----03--33-x-3--x3--33-x-3-33x3x3-5|

G|-------------------------------------------|
D|-------------------------------------------|
A|-2-2/5-5/10-1010--10--10--10-10-10-10------|
E|--2-------------10------10------------10---|
               ^Note: Those are 10's not 1's and 0's ... -_-"

G|--------------------------------------|
D|--------------------------------------|
A|-2-2/5--------------------------------|
E|--2----03--33-x-3--x3--33-x-3-33x3x3-5|

G|-------------------------------------------|
D|-------------------------------------------|
A|-2-2/5-5/10-1010--10--10--10-10-10-10------|
E|--2-------------10------10------------10---|
               ^Note: Those are 10's not 1's and 0's ... -_-"

Guitar Riff / Solo / BRIDGE
G|----------|
D|----------|
A|-2-(hold)-|
E|----------|

    Then do this:
G|--------------------|
D|--------------------|
A|--------------------|
E|--5-3-x-5---3-5-----|

G|--------------------------------------------------|
D|--------------------------------------------------|
A|-0h2-x-0h2-x-0h2-x-0h2-x-0h2-0--------------------|
E|------------------------------3--33-x-5--55-0-3-5-|

G|---------------------------------------------|
D|---------------------------------------------|
A|-0h2-x-0h2-x-0h2-x-0h2-x-0h2-0---------------|
E|------------------------------3--33-x-5--55-0|

G|--------------------------------------------------|
D|--------------------------------------------------|
A|-0h2-x-0h2-x-0h2-x-0h2-x-0h2-0--------------------|
E|------------------------------3--33-x-5--55-0-5-5-|

Then Do this 3x
G|----------------------------|
D|----------------------------|
A|--222--55-------------------|
E|-----------033333333--------|
              ^8 Times Plucking ung 3rd Fret of E String

   then ....
G|------------------------|
D|------------------------|
A|--222--55---------------|
E|----------031-(Pause----|
                  ^Pause for around 2seconds or 6counts

then do this Bass Line/s:
G|------------------|
D|-9-9h11-11/12-----|
A|--9----------12--9|
E|------------------|

G|-------------------------12p11-------|
D|-9-9h11-11/12-------12h14-----12p11--|
A|--9----------12---12-----------------|
E|-------------------------------------|

G|------------------|
D|-9-9h11-11/12-----|
A|--9----------12--9|
E|------------------|

G|-------------9(hold)--|
D|-9-9h11-11/12---------|
A|--9-------------------|
E|----------------------|

CHORUS #3

G|----------------------------------|
D|----------------------------------| Repeat 4x
A|-2-2h4-4/5------------------------|
E|--2-------5--55x5-555-55x5-555-5--|

    then
G|-------------------|
D|-------------------|
A|-2-/5--------------|
E|------5(Let Ring)--|


                            ~~~~~~~~~~~~~
                            ~~ The End ~~
                            ~~~~~~~~~~~~~


For Comments and Suggestions Feel Free to Post Here or email me gyani_15@yahoo.com or 
me 09167771476

                
      P L A N T A E