Dicta License - Ang Ating Araw Chords & Tabs

 

Ang Ating Araw Chords & Tabs

Dicta License Chords & Tabs

Version: 2 Type: Tab

Ang Ating Araw Tab

                ANG ATING ARAW BY: DICTA LICENSE
                     transcribed by: freon
                visit me at: freongang_08@yahoo.com
                    freongang_81@yahoo.com
                
intro:
e|---------------------9b--------|
B|---------------------9b--------|
G|-(let ring)-----(let ring)-----|
D|--0/0--------------------------|
A|--3/5--------------------------|
E|-------------------------------|

e|---------14--15--14--------------------------------|
B|-----15-------------15------(vibrate)-(vibrate)----|
G|--12--------------------14---12b--------9b---------|
D|---------------------------------------------------|
A|---------------------------------------------------|
E|---------------------------------------------------|
[ Tab from: http://www.guitartabs.cc/tabs/d/dicta_license/ang_ating_araw_tab_ver_2.html ]
 sisikat ng muli ang ating araw...
e|--------------  ------------------------------|
B|-(let ring)---  ------------------------------|
G|-5------3-----  --5-5--3-x-3-x-x-3-x-3-x-x-3--|
D|-5------3-----  --5-5--3-x-3-x-x-3-x-3-x-x-3--|
A|-3------1-----  --3-3--1-x-1-x-x-1-x-1-x-x-1--|
E|--------------  ------------------------------|

e|-------------------------------------|
B|-------------------------------------|
G|-------------------9-7--6h7b---------|
D|----5--3-7--7h8h7--------------------|
A|--3----------------------------------|
E|-------------------------------------|

 madalas ay reklamo lang ang bukang bibig...
e|----------------  ------------------|
B|----------------  ------------------|
G|----------------  ------------------|
D|-----2----------  -----2-3-2b-------|
A|-1-3---3-1b-----  -1-3--------------|
E|----------------  ------------------|

 (rap) isa na naman awit...
e|-3-4--3-3-3-4--3-3-3-4--3-3-3-4-----|
B|-3-4--3-3-3-4--3-3-3-4--3-3-3-4-----|
G|------------------------------------|
D|------------------------------------|
A|------------------------------------|
E|------------------------------------|
      <<<>>>