Dicta License - Ang Ating Araw Chords & Tabs

 

Ang Ating Araw Chords & Tabs

Dicta License Chords & Tabs

Version: 1 Type: Tab 0 ratings
1 star 2 stars 3 stars 4 stars 5 stars
comments

Ang Ating Araw Tab

   
Ang ating araw
dicta license

tabbed by: paul sigua , upis 06
 um paki rate na lng po. ty
intro
standard tuning

e|-x--x-
b|-x--x-    x2
g|-5--3-|
d|-5--3-|
a|-3--1-|
e|-x--x-

lead

e|-------12h13p12-------------------|
b|-----13--------13-----------------|
g|---12------------9h10p9-----------|
d|-10-----------------------8h10p8--|
a|----------------------------------|
e|----------------------------------|

chorus
"sisikat nang muli ang ating araw...."

e|-x--x-
b|-x--x-    x2
g|-5--3-|
d|-5--3-|
a|-3--1-|
e|-x--x-

pick scrape bago pumasok toh
e|--------------------|
b|--------------------|
g|-55x3--3xx3xx3xx3xx-|
d|-55x3--3xx3xx3xx3xx-|
a|-33x1--1xx1xx1xx1xx-|
e|--------------------|

then

e|--------------------------|
b|--------------------------|
g|--------------------------|
d|--------7-8-7-8h10-8-7h8--|
a|---10-8-------------------|
e|-8------------------------|


verse

e|-xx-------------xx---------------|
b|-xx-------------xx---------------|
g|-xx-------------xx---------------|
d|-xx-------------xx---------------|
a|-xx-----7-------xx-----7-8-7-----|(7)
e|-xx-6-8---8-6---xx-6-8-----------|

e|-xx-------------xx----------------|
b|-xx-------------xx----------------|
g|-xx-------------xx------9-10-9----|
d|-xx-------------xx-8-10-----------|
a|-xx-----7-------xx------7-8--7----|
e|-xx-6-8---8-6---xx-6-8------------|


chorus 2


e|--------------------|
b|--------------------|
g|-55x3--3xx3xx3xx3xx-|
d|-55x3--3xx3xx3xx3xx-|
a|-33x1--1xx1xx1xx1xx-|
e|--------------------|

then

e|--------------------|
b|--------------------|
g|-55x3--3-3-3-3s5-3s5|
d|-55x3--3-3-3-3s5-3s5|
a|-33x1--1-1-1-1s3-1s3|
e|--------------------|


tpos eto uli
[ Tab from: http://www.guitartabs.cc/tabs/d/dicta_license/ang_ating_araw_tab.html ]
e|--------------------|
b|--------------------|
g|-55x3--3xx3xx3xx3xx-|
d|-55x3--3xx3xx3xx3xx-|
a|-33x1--1xx1xx1xx1xx-|
e|--------------------|


e|--------------------------|
b|--------------------------|
g|--------------------------|
d|--------7-8-7-8h10-8-7h8--|
a|---10-8-------------------|
e|-8------------------------|


verse 2


e|---------------------------------|
b|---------------------------------|
g|---------------------------------|
d|-10xxxxxx-8-10-13----------------|
a|-x-xxxxxx-x-x--xx-------7-8-7-(7)|
e|-8-xxxxxx-6-8--11---6-8----------|


e|-xx-------------xx----------------|
b|-xx-------------xx----------------|
g|-xx-------------xx------9-10-9----|
d|-xx-------------xx-8-10-----------|
a|-xx-----7-------xx------7-8--7----|
e|-xx-6-8---8-6---xx-6-8------------|

chorus 3

gawin mo lang ung sa chorus 2


verse 3

"isa na namang awit..."

e|-8--10-11-10-8--10-11-|   x2
b|-8--8--8--8--8--8--8--|
g|-8--8--8--8--8--8--8--|
d|-10-10-10-10-10-10-10-|
a|----------------------|
e|----------------------|

tapos my break ung guitar

"sisikat nang muli!"
e|----------|
b|----------|
g|-33333333-
d|-33333333-
a|-11111111-
e|----------


chorus 4

ganun din kaso mahaba.. 4 na beses ata..

kung papakinggan nyong mabuti, may lead yan. may delay

e|--------8b---------|
b|-------------------|
g|-------------------|
d|-3b-----------3----|b
a|-------------------|
e|-------------------|


then outro
e|---------------------------|
b|---------------------------|
g|---------------------------|
d|--------7-8-7-10-8-7s8-----|
a|---10-8-------x--x-xsx-----|
e|-8------------8--6-5s6-----|


yun nah. uh, soree kung mdyo magulo at medyo napahaba ata...saka baka my mga typo error 
dyan. kakatamad i check eh...nga pala para sa mga d nakakaalam, ung mga x na un, muted 
saka kayo na bahala sa pagtugtog nyo.. diskarte nyo n lng...um, un na. geh...
Comments