Dicta License - Ang Ating Araw Chords & Tabs

 

Ang Ating Araw Chords & Tabs

Dicta License Chords & Tabs

Version: 1 Type: Bass Tab

Ang Ating Araw Bass Tab

Intro
|----------------------3--|
|----5-3-2-2h3p2-----3----|
|--3-------------3-1------|
|-------------------------| x4

*Slide nio from Bb to C pag magstart na kayong muli sa pangalawa.


Refrain
|-------------------------------|
|-------------------------------|
|--3-33-3-1-00-1-00-1-00-1-00-1-|
|-------------------------------|
*Then..
|-------2-3-2/5-3-2-3--|
|---5-3----------------|
|-3--------------------|
|----------------------|


Verse 1
|-------------||---------------|
|------2------||------2-2h3p2--|
|--1-3---3-1--||--1-3----------|
|-------------||---------------|
*You do that twice. Let the last notes ring.

[ Tab from: http://www.guitartabs.cc/tabs/d/dicta_license/ang_ating_araw_btab.html ]
Verse 2
*This is the only thing that's different from verse 1.
|------------|
|------------|
|--3--1-3-6--|
|------------|


Bridge (Rap)
|---------------------|
|------5-----3--3-----|
|--3--3-3--1---1-1-0--|
|---------------------|

*You do this before siya magrap.
|----------|
|----------|
|-----3-3--|
|--3-5-5---|

*Here's what you do after ng rap.
|---------------||--------------------|
|---------------||--------------------|
|--3--1--3-3-1--||--3--1--3--3333333--|
|---------------||--------------------|


That's about it. Babatiin ko lang po mga classmates ko sa MGSSSI High School Dagupan
at sa banda ko (SALPICADO). Astig kayo. Para senio toh mga chong.
-Mikoy-