Dicta License - Alay Sa Nagkamalay Noong Dekada Nobenta Chords & Tabs

 

Alay Sa Nagkamalay Noong Dekada Nobenta Chords & Tabs

Dicta License Chords & Tabs

Version: 2 Type: Tab

Alay Sa Nagkamalay Noong Dekada Nobenta Tab

Title: Alay sa Nagkamalay Noong Dekada Nobenta
Artist: Dicta License
Album: Paghilom

Tabbed by: <>Pang<>

Tuning: Drop D

Ito ang first tab ko kaya sana magustuhan nyo.. 
astig ng dicta

Order:
Intro
Verse 2x
Pre Chorus
Chorus
Verse 2x
Chorus
Bridge
Chorus
Outro


Intro/Verse
e|---------------------------------------------------------------------||
B|---------------------------------------------------------------------||
G|---------------------------------------------------------------------||
D|--0--2---5~---6-7-6-7---7-6-7----0--0-0-2---5~---6-7-6-7---8-7-------||
A|--0--2--------6-7-6-7---7-6-7----0--0-0-2--------6-7-6-7---8-7-------||
D|--0--2--------6-7-6-7---7-6-7----0--0-0-2--------6-7-6-7---8-7-------||

Pre Chorus
e|----------------||
B|----------------||
G|----------------||
D|--0~------------||
A|--0~------------||
D|--0~------------||

Chorus
e|--------------------||
B|--------------------||
G|--------------------||
D|---5----8--10--0----||
A|---5----8--10--0----|| 4x
D|---5----8--10--0----||

Bridge
e|------------------------------------------------------------------------------------------------------------||
B|------------------------------------------------------------------------------------------------------------||
G|------------------------------------------------------------------------------------------------------------||
D|--0-----4h5-4--------3--5--0----4h5-4--------3--5--0---5h7-5--4h5-4-----3--5--0---5h7-5--4h5-4--------------||
A|--0--5--------0-3h5--3--5--0-5--------0-3h5--3--5--0-5--------------5---3--5--0-5--------------5------------||
D|--0------------------3--5--0-----------------3--5--0--------------------3--5--0-----------------------------||
[ Tab from: http://www.guitartabs.cc/tabs/d/dicta_license/alay_sa_nagkamalay_noong_dekada_nobenta_tab_ver_2.html ]
e|------------------------------------------------------------------------------------------------------------||
B|------------------------------------------------------------------------------------------------------------||
G|------------------------------------------------------------------------------------------------------------||
D|-5h7-7-7-7-7-7-7-10-10-10-10-10-10-10-10---5h7-7-5p4h5-4-5-7-----5h7-7-5p4h5-4-----5h7-7-5p4h5-4-5-4--------||
A|--------------------------------------------------------------------------------5--------------------5------||
D|------------------------------------------------------------------------------------------------------------||

e|--------------------------------------------------------------------||
B|--------------------------------------------------------------------||
G|--------------------------------------------------------------------||
D|---5h7-7-5p4h5-4-5-7-----5h7-7-5p4h5-4-----5h7-7-5p4h5-4-5-4--------||
A|----------------------------------------5--------------------5------||
D|--------------------------------------------------------------------||

Outro
e|----------------------------------------------------------------------------------------------------||
B|---------------------------------------------------------------13p12--------------------------------||
G|--12h14-14-12p11h12-11-12-14-12h14-14--12p11h12-11----12h14-14--------14-12-11-12-------------------||
D|---------------------------------------------------12-------------------------------12--------------||
A|----------------------------------------------------------------------------------------------------||
D|----------------------------------------------------------------------------------------------------||

e|-------------------------------------------------------------13-------------------------------------||
B|-------------------13h15-------13h15-------13h15---------13-----------------------------------------||
G|--12h14-14--12h14--------12h14-------12h14--------12h14---------12h14-14-12p11h12-11-12-11----------||
D|-------------------------------------------------------------------------------------------12---0---||
A|------------------------------------------------------------------------------------------------0---||
D|------------------------------------------------------------------------------------------------0---||

Kung may comments kau email nyo ako or i YM sa kempot_55@yahoo.com
Thx