Dickinson Bruce - Shoot All The Clowns Chords & Tabs

 

Shoot All The Clowns Chords & Tabs

Dickinson Bruce Chords & Tabs

Version: 1 Type: Tab 0 ratings
1 star 2 stars 3 stars 4 stars 5 stars
comments

Shoot All The Clowns Tab

   

Author/Artist: Bruce Dickinson
Title: Shoot all the clowns First solo  
Album: Balls to Picasso
Transcribed By : James.D.Younan     
8:38 PM 2/1/02
Email : jyounan@lavaworld.com

This is the first time I transcrib a guitar tab so if you see any mistakes or correction please  
email me . I've been working on this solo for quite a while , it's tricky and fast .I tried to make  
it sound as close as possible ,  you have to listen the song to get the correct timing.
this song is really cool ! it has alot of chrunchy guitar fills and great guitar solos too  
here is the symbols explination :  
  /    :   Slide up.    
 br   :  bend up then release.       
  p   :   Pull off.
  h   :   Hammer on.       
 qbr :  quarter bend then release to note.   
  ~   :  Vibrato.   
  fb  :   full bend.  
 hbr :  half bend then release to note.  
 qb  :  quarter bend.
this song use standard tunning E A D G B E
I will try and work on the secound solo soon.
I hope you enjoy it !!.  

Guitar solo# 1 by Roy Z  
------------------------------------------------------------------------------------------
----4/---4br-4-4-4p--2------------------------------------------------------------------
----4/---4br-4-4-4p--2--------------2---------------2---4--4qbr2-------2~------------
--------------------------4p-2-h-4-----------2-h-4-------------------4------------------
------------------------------------------------------------------------------------------
------------------------------------------------------------------------------------------

[ Tab from: http://www.guitartabs.cc/tabs/d/dickinson_bruce/shoot_all_the_clowns_tab.html ]
					         
------------------------------------------------------------------------------------------
--------------------10-10----------12fb--12hbr-10------10~-----------------------------
------------9--11-----------11-11-------------------11----------------------------------
----9--11--------------------------------------------------------------------------------
------------------------------------------------------------------------------------------
------------------------------------------------------------------------------------------



---------10--------10--------10---------10---------10--------10---------------------------------
---12qb-----12qb------12qb------12qb------12qb-----12qb-----12qb--12--12-12--10---------
----------------------------------------------------------------------------------------------------
----------------------------------------------------------------------------------------------------
----------------------------------------------------------------------------------------------------
----------------------------------------------------------------------------------------------------


play this very fast !						not sure about this part !
----------------------------------------------------------------------------------------------------
----------------------------------------------------------------------------------------------------
----9qb-----6h-9-p6--------6h-9-p6-------6h-9-p6-------6h-9-p6--------6h-9-p6---------------
----------9--------------9---------------9-------------9---------------9--------------9-p-7--------
-----------------------------------------------------------------------------------------------9------
----------------------------------------------------------------------------------------------------



-------------------------------12/---------------------
--------------------------------------------------------
--------------------------------------------------------   thats all , it's really short then he goes to that funky guitar part .
----9p-7~--------7------------------------------------   again, you have to play along the CD to get the right timing.   
------------7--9-----9p-7------------------------------
--------------------------------------------------------


send your comments or questions .  
my next projects will be : second solo and end solo .
Is any one working on " Gods of war " solo ? thats a good solo too.    

Comments