Dickinson Bruce - Born In Chords & Tabs

 

Born In Chords & Tabs

Dickinson Bruce Chords & Tabs

Version: 1 Type: Chords 0 ratings
1 star 2 stars 3 stars 4 stars 5 stars
comments

Born In Chords

   
born in 58
bruce dickinson

~ -let ring
/ -slide up
p -pull off
b -bend

INTRO
e-------3-3-2-------------3--------3-3-2-------------
b-------------3-0-----1p0----------------3-0-----1p0-
g----------------------------------------------------
d-----0-------------2------------0-------------2-----
a---2-------------0------------2-------------0-------
e-3--------------------------3-----------------------

INTERLUDE (clean) -x4 
e------------------------------------------------
b---------3~----------3~--------1-3~----------3~-
g-------0-----------0---------0-------------0----
d-----0-----------2---------2-------------0------
a---2-----------2---------3-------------2--------
e-3-----------0-----------------------3----------
[ Tab from: http://www.guitartabs.cc/tabs/d/dickinson_bruce/born_in_crd.html ]
VERSE - Gtr 1 (clean) -x2 on 2nd time with gtr 2
e--------------------------------------------------
b--------------------------------------------------
g------------------------5---------------------7/9-
d-5----------------------5---------------------7/9-
a-5----------------------3---------------------5/7-
e-3------------------------------------------------

VERSE -Gtr 2 (distorted)
e------------------------------------
b------------------------------------
g-----------7--5-5-------------------
d-2----5----7--5-5--2----5----5--7-7-
a-2----5----5--3-3--2----5----5--7-7-
e-0----3------------0----3----3--5-5-

CHORUS x2
e--------------------------------------------------------------
b--------------------------------------------------15-12-13-13-
g-14b16~14-12-14-12-11-12p11--------14b16~14-12-14-------------
d----------------------------14-14-----------------------------
a--------------------------------------------------------------
e--------------------------------------------------------------

SOLO -x2 Gtr 1
e-------------------------------------------------------
b-------------------------------------------------------
g--------------7--5----------------------------7--3-5-5-
d-2------------7--5-------------2--------------7--3-5-5-
a-2------------5--3-------------2--------------5--2-3-3-
e-0-----------------------------0-----------------------
Comments