Dick Dale - Riders In The Sky Chords & Tabs

 

Riders In The Sky Chords & Tabs

Dick Dale Chords & Tabs

Version: 3 Type: Tab 0 ratings
1 star 2 stars 3 stars 4 stars 5 stars
comments

Riders In The Sky Tab

I did this tab because the other person tabbed it wrong so I'm fixing his.

Tuning: standard

E|-------------------------------------------------------|
B|-------------------------------------------------------|
G|-------------------------------------------------------|
D|-------------------------------------------------------|
A|-----0--0-0--2--3--3-3--0------------------------------|
E|--0------------------------3--3-3--0--3----------------|
[ Tab from: http://www.guitartabs.cc/tabs/d/dick_dale/riders_in_the_sky_tab_ver_3.html ]
E|-------------------------------------------------------|
B|-------------------------------------------------------|
G|-------------------------------------------------------|
D|---------------------0--2--2-2--0--2-------------------|
A|--0--0-0--2--3--3-3------------------------------------|
E|-------------------------------------------------------|

E|-------------------------------------------------------|
B|-------------------------------------------------------|
G|------2--2-2--2----------------------------------------|
D|--2-------------2--2-2--2--0---------------------------|
A|------------------------------3--0----0-------------3--|
E|-----------------------------------------1--1-1--1-----|


any questions? email me at: SkylineGTR450hp@yahoo.com or IM me with MazdaRX7150hp
Comments