Dick Dale - Miserlou Chords & Tabs

 

Miserlou Chords & Tabs

Dick Dale Chords & Tabs

Version: 4 Type: Tab 0 ratings
1 star 2 stars 3 stars 4 stars 5 stars
comments

Miserlou Tab

   
Dick Dale
Miserlou
(This song is played extremely fast)
          Verse 1
e------------------------------------------------
B------------------------------------------------
G------------------------------------------------
D------------------------------------------------
A------------------------------------------------
E-12\1-0-0-0-0-0-0-0-0-0-0-0-0-0-0-0-0-0-0-0-0-0-

-----------------------------------------------------
-----------------------------------------------------
-----------------------------------------------------
-----------------------------------------------------
-----------------------------------------------------
-1-1-1-4-4-4-5-5-5-7-7-7-7-7-7/11-8-7-7-7-7-7-7-7\1--

--------------------------------------------------------
--------------------------------------------------------
--------------------------------------------------------
--------------------------------------------------------
--------------------------------------------------------
-0-0-0-0-0-0-0-0-0-0-1-1-1-4-4-4-5-5-5-7-7-7-7-7-7/11-8-

-------------------------------------------------------------------
-------------------------------------------------------------------
-------------------------------------------------------------------
-------------------------------------------------------------------
-------------------------------------------------------------------
-7-7-7-7-7-7-7-7-7-7-7-7-8-7-8-7\5-7-5-7-5-4-1-4-4-4-4-4-4-4-4-4-4-

-----------------------------------------------
-----------------------------------------------
-----------------------------------------------
-----------------------------------------------
-----------------------------------------------
-7-5-7-5-4-5-4-5-4-1-0-0-0~~~~~~~~~~~~~~~~~~~~~

              Verse 2
-12\1-0-0-0-0-0-0-0-0-0-0-0-0-0-0-0-0-0-0-0-0-0
-----------------------------------------------
-----------------------------------------------
-----------------------------------------------
-----------------------------------------------
-----------------------------------------------

-1-1-1-4-4-4-5-5-5-7-7-7-7-7-7/11-8-7-7-7-7-7-7\1--
---------------------------------------------------
---------------------------------------------------
---------------------------------------------------
---------------------------------------------------
---------------------------------------------------

-0-0-0-0-0-0-0-0-0-0-1-1-1-4-4-4-5-5-5-7-7-7-7-7-7/11-8-
--------------------------------------------------------
--------------------------------------------------------
--------------------------------------------------------
--------------------------------------------------------
--------------------------------------------------------
[ Tab from: http://www.guitartabs.cc/tabs/d/dick_dale/miserlou_tab_ver_4.html ]
-7-7-7-7-7-7-7-7-7-7-7-7-8-7-8-7\5-7-5-7-5-4-1-4-4-4-4-4-4-4-4-4-
-----------------------------------------------------------------
-----------------------------------------------------------------
-----------------------------------------------------------------
-----------------------------------------------------------------
-----------------------------------------------------------------

-7-5-7-5-4-5-4-5-4-1-0-0-0~~~~~~~~~~~~~~~~~~~~~
-----------------------------------------------
-----------------------------------------------
-----------------------------------------------
-----------------------------------------------
-----------------------------------------------

(Trumpet Solo)
                Solo
---------------------------------------------------------
---------------------------------------------------------
---------------------------------------------------------
---------------------------------------------------------
---------------------------------------------------------
-5-5-5-5-5-5-5-5-5-5-5-5-5-5-5-5-5-5-5-5-5-5-5-5-5-5-5-5-

---------------------------------------------------------
---------------------------------------------------------
---------------------------------------------------------
---------------------------------------------------------
---------------------------------------------------------
-5-4-5-7-7-7-7-7-7-7-7-7-7-7-7-7-7-7-7-7-7-7-7-7-7-7-7-7-

-----------------------------------------------------------
-----------------------------------------------------------
-----------------------------------------------------------
-----------------------------------------------------------
-----------------------------------------------------------
-7-5-7-8-8-8-8-8-8-8-8-8-8-8-8-8-8-7-8-11-11-8-11-12-12-12-

-------------------------------------------
-------------------------------------------
-------------------------------------------
-------------------------------------------
-------------------------------------------
-12-12-12-12-12-12-12-12-12-12-12-12-12-12-

------------------------------------------------------------
------------------------------------------------------------
------------------------------------------------------------
------------------------------------------------------------
------------------------------------------------------------
-13-12-13-12-10-12-10-12-10-8-7-7-7-7-7-7-7-7-7-7-7-7-7-7-7-

--------------------------------------------
--------------------------------------------
--------------------------------------------
--------------------------------------------
--------------------------------------------
-10-8-10-8-7-7-4-7-5-4-1-0-0-0~~~~~~~~~~~~~~

    :Key:
~ let note ring
/ slide up
\ slide down

Order: Verse 1
       Verse 2
       Trumpet Solo
       Solo
       Verse 2

Tabbed by: Thomas Yi
If you have any questions about the tab email me at okhui@sbcglobal.net
Comments