Dick Dale - Hava Nagila Chords & Tabs

 

Hava Nagila Chords & Tabs

Dick Dale Chords & Tabs

Version: 1 Type: Tab 0 ratings
1 star 2 stars 3 stars 4 stars 5 stars
comments

Hava Nagila Tab

Song: Hava Nagila

tremolo pick each note


|-----|-----|--4--------4--|--4-----|--7--5--4--5--|--5-----|-------------|
|--5--|--5--|-----6--5-----|--------|--------------|--------|-------------|
|-----|-----|--------------|--------|--------------|--------|-------------|
|-----|-----|--------------|--------|--------------|--------|-------------|
|-----|-----|--------------|--------|--------------|--------|-------------|
|-----|-----|--------------|--------|--------------|--------|-------------|

8--7--5--4--|-----------4--|-----|-----|--4--------4--|--4--|-------------|
------------|--6--5--6-----|--5--|--5--|-----6--5-----|-----|-------------|
------------|--------------|-----|-----|--------------|-----|-------------|
------------|--------------|-----|-----|--------------|-----|-------------|
------------|--------------|-----|-----|--------------|-----|-------------|
------------|--------------|-----|-----|--------------|-----|-------------|

7--5--4--5--|--5--|--8--7--5--4--|--------------|--16--|------------------|
------------|-----|--------------|--6--5--6--5--|------|------------------|
------------|-----|--------------|--------------|------|------------------|
------------|-----|--------------|--------------|------|------------------|
------------|-----|--------------|--------------|------|------------------|
------------|-----|--------------|--------------|------|------------------|

16----------|--------------|--------------|--------------|----------------|
----18--17--|--17--17--18--|--18--17--15--|--15--15--15--|----------------|
------------|--------------|--------------|--------------|----------------|
------------|--------------|--------------|--------------|----------------|
------------|--------------|--------------|--------------|----------------|
------------|--------------|--------------|--------------|----------------|

13--12------|------17--16--|--------------16--|--16--|--16----------|-----|
--------15--|--15----------|--18--17--18------|------|------18--17--|-----|
------------|--------------|------------------|------|--------------|-----|
------------|--------------|------------------|------|--------------|-----|
------------|--------------|------------------|------|--------------|-----|
------------|--------------|------------------|------|--------------|-----|

------------|--------------|--------------|--13--12------|----------------|
17--17--18--|--18--17--15--|--15--15--15--|----------15--|----------------|
------------|--------------|--------------|--------------|----------------|
------------|--------------|--------------|--------------|----------------|
------------|--------------|--------------|--------------|----------------|
------------|--------------|--------------|--------------|----------------|
[ Tab from: http://www.guitartabs.cc/tabs/d/dick_dale/hava_nagila_tab.html ]
----17--16--|--------------16--|--17--|--17--|--17--|--17--17--|----------|
15----------|--18--17--18------|------|------|------|----------|----------|
------------|------------------|------|------|------|----------|----------|
------------|------------------|------|------|------|----------|----------|
------------|------------------|------|------|------|----------|----------|
------------|------------------|------|------|------|----------|----------|

17------|----------------------|--------------|----------------------|----|
--------|----------------------|--------------|----------------------|----|
--------|----------17--16------|--17--16------|----------17--16------|----|
----19--|--19--19----------19--|----------19--|--19--19----------19--|----|
--------|----------------------|--------------|----------------------|----|
--------|----------------------|--------------|----------------------|----|

8--7--5--7--|--7--7--10--8--7--|--10--8--7--|--7--7--10--8--7--|----------|
------------|------------------|------------|------------------|----------|
------------|------------------|------------|------------------|----------|
------------|------------------|------------|------------------|----------|
------------|------------------|------------|------------------|----------|
------------|------------------|------------|------------------|----------|

10--8--7--|--7--7--12--|--------|-----8--7-------------|-----|-----|------|
----------|------------|--------|-----------10--9--10--|--5--|--5--|------|
----------|------------|--9--9--|--9-------------------|-----|-----|------|
----------|------------|--------|----------------------|-----|-----|------|
----------|------------|--------|----------------------|-----|-----|------|
----------|------------|--------|----------------------|-----|-----|------|

4--------4--|--4--|--7--5--4--5--|--5--|--8--7--5--4--|-----------4--|----|
---6--5-----|-----|--------------|-----|--------------|--6--5--6-----|----|
------------|-----|--------------|-----|--------------|--------------|----|
------------|-----|--------------|-----|--------------|--------------|----|
------------|-----|--------------|-----|--------------|--------------|----|
------------|-----|--------------|-----|--------------|--------------|----|

---|-----|--4--------4--|--4--|--7--5--4--5--|--5--|--8--7--5--4--|-------|
5--|--5--|-----6--5-----|-----|--------------|-----|--------------|-------|
---|-----|--------------|-----|--------------|-----|--------------|-------|
---|-----|--------------|-----|--------------|-----|--------------|-------|
---|-----|--------------|-----|--------------|-----|--------------|-------|
---|-----|--------------|-----|--------------|-----|--------------|-------|

------------|--17---------------------------------------------------------|
6--5--6--5--|-------------------------------------------------------------|
------------|-------------------------------------------------------------|
------------|-------------------------------------------------------------|
------------|-------------------------------------------------------------|
------------|-------------------------------------------------------------|
Comments