Dick Dale - Banzai Washout Chords & Tabs

 

Banzai Washout Chords & Tabs

Dick Dale Chords & Tabs

Version: 1 Type: Tab 0 ratings
1 star 2 stars 3 stars 4 stars 5 stars
comments

Banzai Washout Tab

Song: Banzai Washout
Artist: Dick Dale
Tabbed By Bruce W.
Email: ridersinthesky_85@hotmail.com

Intro

w/heavy reverb

e--0------3------2------7------0------------------|
b--0------3------2------7------0------------------|
g--0------4------3------8------0------------------|
d--2------5------4------9------2------------------|
a--2------5------4------9------2------------------|
e-------------------------------------------21/---|
                                            (tremolo pick in sixteenth-note pattern 
sliding down string)

[ Tab from: http://www.guitartabs.cc/tabs/d/dick_dale/banzai_washout_tab.html ]
e--------------------------------------------------------|
b--------------------------------------------------------|
g--------------------------------------------------------|
d--------------------------------------------------------|
a--------------------------------------------------------|
e-0-0-0-0-0-0-0-0-0-0-0-0-0--2-3-3-3-0-0-0-0-0-0-0-0-0---|

e--------------------------------|
b--------------------------------|
g--------------------------------|
d--------------------------------|
a----2-2-2-2-2-2-2-2-0-0-0-0-----|
e--3--------------------------3--|

I'm still tabbing the rest...I have some more Dick Dale songs I need to post soon, but 
you need any or want to help me tab soem, just email me or hit me up on myspace:

http://profile.myspace.com/index.cfm?fuseaction=user.viewprofile&friendID=6648123&Mytoken
=A45534D8-8CAD-4F10-A2C51913C75FE316206435515
Comments