Dice And K9 - Itsumo Chords & Tabs

 

Itsumo Chords & Tabs

Dice And K9 Chords & Tabs

Version: 2 Type: Tab 0 ratings
1 star 2 stars 3 stars 4 stars 5 stars
comments

Itsumo Tab

   Itsumo
    by Dice and Knine
    ________________________
    TAbbed by: Dex Harrold I.

Bass Tab

e----------------------------------------------------------------|
b----------------------------------------------------------------|
g----------------------------------------------------------------|
d----------------------------------------------------------------|
a----------------------------------------------------------------|
E----44--44----433--33--13-44--44---433--33--13------repeat------|

[ Tab from: http://www.guitartabs.cc/tabs/d/dice_and_k9/itsumo_tab_ver_2.html ]
Guitar1
e--------6~---------6~-------6-6---------------------repeat------|
b------4----------6----------8-8---------------------------------|
g----5-----------------------------------------------------------|
d----------------------------------------------------------------|
a----------------------------------------------------------------|
E----------------------------------------------------------------|

Guitar2 (keyboard or something??)

e---------------------------6-------------|------------------------|
b--- 4~----------4-6----------8-----------|---4~-------4-3----4----|
g-----------------------------------------|-----------------------5|
d-----------------------------------------|------------------------|                       (repeat)
a-----------------------------------------|------------------------|
E-----------------------------------------|------------------------|
Comments