Dice And K9 - Itsumo Chords & Tabs

 

Itsumo Chords & Tabs

Dice And K9 Chords & Tabs

Version: 1 Type: Tab 0 ratings
1 star 2 stars 3 stars 4 stars 5 stars
comments

Itsumo Tab

Band: Dice And Knine
Song: Itsumo
Intro: Bass
e|-----------------------|     |---------------------------|
B|-----------------------|     |---------------------------|
G|-----------------------|     |---------------------------|
D|-----------------------|     |---------------------------| Play this Riff 
A|-----------------------|     |---------------------------| the entire song
E|-4-4--4-4--4--3-3--3-3-|     |-1-3-4-4--4-4--4--3-3--3-3-|

1st GUITAR
e|------6------6------6------6----|
B|----4------4------4------4------|
G|--5-------------5---------------|
D|--------------------------------| Play this Riff
A|--------------------------------| along w/ the Bass
E|--------------------------------|

2nd GUITAR w/ chorus effects or you can just play this stuff on organ
e|--0----2----0-|
B|--2----4----5-|
G|--2----4----4-|
D|--2----4----6-|
A|--0----2----7-|
E|--------------|
[ Tab from: http://www.guitartabs.cc/tabs/d/dice_and_k9/itsumo_tab.html ]
Comments