Diana Degarmo - All I Never Wanted Chords & Tabs

 

All I Never Wanted Chords & Tabs

Diana Degarmo Chords & Tabs

Version: 1 Type: Tab 0 ratings
1 star 2 stars 3 stars 4 stars 5 stars
comments

All I Never Wanted Tab

   
i sortof like this song since i can relate to it so when i found out that no one else
tabbed it i just had to.

e----1-----1-------1-------1-----|
b-----1------1-------1-------1---|
g--------------------------------|
d-0------0-----------------------| 2x intro
a--------------1-------1---------|
e--------------------------------|


e----1-----1-------1-------1-----|
b-----1------1-------1-------1---|
g--------------------------------|
d-0------0-----------------------| 3x  verse
a--------------1-------1---------|
e--------------------------------|
  it was all a dream...
[ Tab from: http://www.guitartabs.cc/tabs/d/diana_degarmo/all_i_never_wanted_tab.html ]
e---1------1-------1------1------|
b-----1------1-------1-------1---|
g--------------------------------|
d--------------------------------| 
a-3-----3-------1-------1--------|
e--------------------------------|
  then floating down

e----1-----1-------1-------1-----|
b-----1------1-------1-------1---|
g--------------------------------|
d-0------0-----------------------| 3x  verse
a--------------1-------1---------|
e--------------------------------|
  well its strange how you feel...
e---1------1-------1------1------|
b-----1------1-------1-------1---|
g--------------------------------|
d--------------------------------| 
a-3-----3-------1-------1--------|
e--------------------------------|
  tryin to turn the pages

chorus:
e----|
b----|
g-10-|
d-10-| 
a-8--|x 8 

e----|
b----|
g----|
d-10-| 
a-10-|x 8
e-8--|

e----|
b----|
g----|
d-12-| 
a-12-|x 8
e-10-|

e----|
b----|
g----|
d-8--| 
a-8--|x 8
e-6--|
repeat 4 times for chorus

verse and chorus the same
Comments