Diamond Rio - Unbelievable Chords & Tabs

 

Unbelievable Chords & Tabs

Diamond Rio Chords & Tabs

Version: 1 Type: Bass Tab 0 ratings
1 star 2 stars 3 stars 4 stars 5 stars
comments

Unbelievable Bass Tab

http://www.diamondrio.com/

-------------------------------------------------------------------------------
			     Unbelievable - Diamond Rio
-------------------------------------------------------------------------------

Tabbed By : Jacob Green
e-mail: revelation45@hotmail.com

Tuning:EADG


Intro
G|------------------|
D|------------------|
A|---7--------------|
E|-7----1010-9-8-7\-|

1st Verse
G|-------------------------------------------------------|
D|-----------------------------------------------------4-|
A|---------6-9-6---6-9-6---6-9-6-----------1-4-1---1-4---|
E|-14\---7-------7-------7-------7-7-6-4-2-------2-------|

G|---------------------------------|
D|-9-8-7-6-------------------------|
A|---------9-7-6-----6-9-6-----6-7-|
E|---------------9-7-------7-9-----|
[ Tab from: http://www.guitartabs.cc/tabs/d/diamond_rio/unbelievable_btab.html ]
1st chorus
G|----------------------------------------------------|
D|---6-9-6---6-9-7------------------------------------|
A|-7-------7---------6-9-6---6-9-6---8-11-8-----------|
E|-----------------7-------7-------9--------9-7-6-4-2-|

2nd verse
G|-----------------------------------------------------------------|
D|-----------------------------------------------------------------|
A|---6-9-6---6-9-6---6-9-6-----------1-4-1---1-4-1---6-9-6---------|
E|-7-------7-------7-------7-7-6-4-2-------2-------7-------7-2-4-6-|

2nd chorus
G|----------------------------------------------------|
D|---6-9-6--------------------------------------------|
A|-7-------7-7-6-----6-9-6-----------8-11-8-----------|
E|---------------9-7-------7-7-6-7-9--------9-7-6-4-2-|


Song Structure
Intro 1x
1st Verse 1x
1st Chorus
2nd Verse 1x
1st Verse 1x
2nd Verse 2x
2nd Chorus 
2nd Verse 1x
1st Verse 1x ending part 2x

Not that hard of a song.  I enjoy playing it.
Comments